Guitar Tabs
song title    band name

Join Us Today!

Don't strum alone...
be a part of the largest online Christian music community. Browse thousands of guitar tabs and chat w/ musicians like yourself.


It's Free!

This tab has been rated a 4.67 out of 5 for accuracy. (6 votes)Sorry, but you must be logged in to rate this tab.
Click here to log-in, or you can click here to register.
(Registration is free)

All songs owned by corresponding publishing company. If you make copies of any song on this website, be sure to report your usage to CCLI.
Submitted by: teenspirit89

Relient K
Getting Into You
Two Lefts Don't Make A Right But Three Do

This is the Bridge.
The others were close but not exactly right.
This one is 100% correct.

e-------------------------------------------------------------------
B-----------5----------------4---------------2--------------0-------
G---------------------------------------------------------------1---play this
D-------6-------6-------4--------4-------2-------2------2-----------twice
A---4---------------2----------------0---------------0--------------
E-------------------------------------------------------------------

Then on the Third time play this
------------------------------------4-----------0---
-----------5---------------4--------5---2-------0---
--------------------------------------------2---1---
-------6-------6-------4--------4---------------2---
---4---------------2----------------0---------------
----------------------------------------------------

Thats it 
And this is almost 100% correct
No lie

ryan
nrvna89@yahoo.com

Comments about this tab

jdill - 2004-07-31

This tab sounds great except for one. In the first part, that you play twice, the second open A should be an open E. Perfect otherwise though, thanks!


swmrunseal - 2004-09-24

The bridge part has 2 guitars playing in it. If you use PowerTabs you can make it so you hear how it is supposed to sound. It goes (letter is string):

Guitar 1:
A4, D2, B0, G1, A2, D2, B0, G1, A0, D2, B0, G1, E0, D2, B0, G1 (esentially the same as is usually played in the song, except the low note changes)

Guitar 2 Adds whenever the low note of Guitar 1 is played:

G9 G11 G9 G9


guitarwolf - 2005-09-05

i've heard the song done in open E tuning (EBEG#Be).
then it's just picking on certain bar chords.


RKfreek - 2006-08-09


all of you were so close! but I got the chourus. its,

e ----0----0----0----0----
B ----0----0----0----0----
G ----9----8----2----2----
D ----9----9----4----2----
A ----7----9----4----0----
E ----0----0----2----0---- x2

But the original tabbers verse is perfecto!


RKfreek - 2006-08-09





guitar_freak_15 - 2006-09-04

hey, the chorus goes more like this in my opinion

e--0--0--0--0--I
b--0--0--0--0--I
g--9--8--6--6--I
d--9--9--7--7--I
a--7--7--9--7--I
e--0--0--0--5--I

you then play the chords with these fingers th first chord like this 7-1(the 7 with first finger and so on) so 7-1, 9-3, 9-4, next chord 7-1, 9-3, 8-2, next like 9-4, 7-2, 6-1, and the last like this 5-1, 7-3, 7-4, 6-2, and there you are.

I think that this one sound really good.

God Bless

Guitar_freak_15


guitar_freak_15 - 2006-09-04

the chorus is x2


Switchfoot_ - 2007-01-24

Nice try!but i think(know,i saw them in concert and i play with my dad) and it sounds perfect when you do with two guitars:

Bridge:

Guitar 1
E------------------------------------------------------------------------------
B------------------------------------------------------------------------------
G---9----8----6----1----9----8----6----1----9----8----6---1--------------------
D----9----9----6----2----9----9----7----2----9----9----7--2--------------------
A--7----9----7----2----7----9----7----2----7----9----7----2--------------------
E-9----7----5----0----9----7----5----0----9----7----5-----0--------------------

Guitar 2
E----------------12------------------12-------------12-------------------------
B-9----10---12---12---9----10---12---12---9----12---12-------------------------
G-9----11---13--------9----11---13--------9----13------------------------------
D------------------------------------------------------------------------------
A------------------------------------------------------------------------------
E------------------------------------------------------------------------------



Try it.that's it.


Add a comment/correction

Complimentary Christian Ringtones
Dadamobile and CGR have teamed up to bring your favorite Christian artists right to your phone. Sign up today and get 10 complementary ringtones!
Tab Country
Did you know CGR has a sister site w/ country guitar tabs? Well we do! Its called Tab Country. It has a great archive with a lot of country tabs.
Rockin Tabs
Are you looking for a site that has rock guitar tabs? Then Rockintabs.com is the place for you. It is a budding site with many rock guitar tabs. Submit your tab today.
Tab Gallery
Tab Gallery has a compilation of christian, rock, and country tabs all in one place. Come visit us.