Guitar Tabs
song title    band name

Join Us Today!

Don't strum alone...
be a part of the largest online Christian music community. Browse thousands of guitar tabs and chat w/ musicians like yourself.


It's Free!

This tab has been rated a 3.17 out of 5 for accuracy. (6 votes)Sorry, but you must be logged in to rate this tab.
Click here to log-in, or you can click here to register.
(Registration is free)

All songs owned by corresponding publishing company. If you make copies of any song on this website, be sure to report your usage to CCLI.
Submitted by: Cradleinking102

Song: Oh Lord, You’re Beautiful
Artist: The Micah Tawlks Band

Intro…

Acoustic D G A   D G A  Bm A  G A D G A

After acoustic, electric enters with…

       C#    A2        B
e------0----------0----0-----0------second time only-------
B------5---------------0--------0--------------------------
G------6---------------4-----------4-----------------------
D------6--------2------4-----------------------------------
A------4-----0---------2-----------------------------------
E------x---------------x-----------------------------------

Verse…

C#  A2  B
C#  A2  B
C#  E   C# B E
A2  B  E  (fill 1)

Repeat verse

Chorus…

A2   B C#
A2   B
A2   B C#
A2   B 


Harmonics over transition from verse to chorus and over second chorus
e-----------------------------------------------------------
B-------------------------12-12-12-12--7-7 (only first time)
G-------------------------------------------------------------
D--------------7-7-7-7-7--------------------------------------
A-----7-7-7---------------------------------------------------
E-------------------------------------------------------------

Bridge…

D A E

solo
e--------------------------5b7-7-7-7---------------
B-----5-5-5-5-5—7b8r7--5---------------------------
G--------------------------------------------------
D--------------------------------------------------
A--------------------------------------------------
E--------------------------------------------------repeat

e--------------------------------------------------
B-----5--3-----------------------------------------
G------------4--2--0-------------------------------
D-----------------------0--2-----------------------
A--------------------------------------------------
E--------------------------------------------------


Fill 1=
e-----0----0--------------------------
B-----0----0--------------------------
G-----1----1---1-h2--1----------------
D-----2--------2-----2----------------
A-----2-------------------------------
E-----0-------------------------repeat

Questions or Comments or other Micah Tawlks tabs, email Cradleinking102@aol.com

Comments about this tab

acethrowbot - 2004-11-10

i don't know why this tab is rated so low! this is a pretty good tab. there are a few small things that i noticed wrong, but nothing major. here are a few suggestions:
the C# should be C#m. you probably know this, but it might be a good thing to fix.

the verse should like this, i think (just one line changed):
C# A2 B
C# A2 B
C# B A2 B C#
A2 B E (fill 1)

the first C#m in the chorus should be an E.
check the solo and the harmonics part.

other than those very small things, i think that's it. as an encouragement, i think that this tabis really good, despite the low rating. keep up the good work! the micah tawlks band rock!!!

in Christ,
acethrowbot


Add a comment/correction

Complimentary Christian Ringtones
Dadamobile and CGR have teamed up to bring your favorite Christian artists right to your phone. Sign up today and get 10 complementary ringtones!
Tab Country
Did you know CGR has a sister site w/ country guitar tabs? Well we do! Its called Tab Country. It has a great archive with a lot of country tabs.
Rockin Tabs
Are you looking for a site that has rock guitar tabs? Then Rockintabs.com is the place for you. It is a budding site with many rock guitar tabs. Submit your tab today.
Tab Gallery
Tab Gallery has a compilation of christian, rock, and country tabs all in one place. Come visit us.