Guitar Tabs
song title    band name

Join Us Today!

Don't strum alone...
be a part of the largest online Christian music community. Browse thousands of guitar tabs and chat w/ musicians like yourself.


It's Free!

This tab has been rated a 5.00 out of 5 for accuracy. (2 votes)Sorry, but you must be logged in to rate this tab.
Click here to log-in, or you can click here to register.
(Registration is free)

All songs owned by corresponding publishing company. If you make copies of any song on this website, be sure to report your usage to CCLI.
Submitted by: scheller

Marvelous Things
Eisley
EP: Marvelous Things
(C) 2003 Warner Bros.

Transcribed by scheller  sonnyschell@hotmail.com
Powertab file available here:
http://www.christianguitar.org/forums/showthread.php?p=1421898#post1421898


Em     022000
C      x32010
G      320033
Em7    022033
Asus4  x0223x


 Intro             Verse 1
 Organ/Piano arranged for guitar
                   3/4 time
                    Em           C             Em           C
|----------------||-0----0-----|-------------|-0----0-----|-------------|
|--0-0-0-0-0-0-0-||------0---0-|-1-----1-----|------0---0-|-1-----1-3-1-|
|----------------||------------|-----0-----0-|------------|-----0-------|
|----------------||---2----2---|---2-----2---|---2----2---|---2---------|
|----------------||------------|-3-----------|------------|-3-----------|
|----------------||------------|-------------|------------|-------------|


  Em            C             Em            C
|-0-----0-----|-------------|-0-----0-----|-------------|
|-0---0-0---0-|-1-----1-----|-0---0-0---0-|-1-----1-----|
|-------------|-----0-----0-|-------------|-----0-----0-|
|---2-----2---|---2-----2---|---2-----2---|---2-----2---|
|-------------|-3-----3-----|-------------|-3-----3-----|
|-------------|-------------|-------------|-------------|


  Em            C             Em            C
|-0-----0-----|-------------|-0-----0-----|-------------|
|-0---0-0---0-|-1-----1-----|-0---0-0---0-|-1-----1-----|
|-------------|-----0-----0-|-------------|-----0-----0-|
|---2-----2---|---2-----2---|---2-----2---|---2-----2---|
|-------------|-3-----3-----|-------------|-3-----------|
|-------------|-------------|-------------|-------------|
|
| Gtr III (clean elec.)
|-------------|-------------|-------------|-------------|
|-------------|-------------|-------------|-------------|
|-------------|-------------|-------------|-------------|
|-------------|-------------|-------------|-------------|
|-------------|-3-----3-----|-------------|-3-----2-----|
|-0-----0-----|-------------|-0-----0-----|-------------|


  Em            C             Em            C
|-0-----0-----|-------------|-0-----0-----|-------------|--------|
|-0---0-0---0-|-1-----1-----|-0---0-0---0-|-1-----1-----|--------|
|-------------|-----0-----0-|-------------|-----0-----0-|--------|
|---2-----2---|---2-----2---|---2-----2---|---2-----2---|--------|
|-------------|-3-----3-----|-------------|-3-----------|--------|
|-------------|-------------|-------------|-------------|--------|
|
|-------------|-------------|-------------|-------------|--------|
|-------------|-------------|-------------|-------------|--------|
|-------------|-------------|-------------|-------------|--------|
|-------------|-------------|-------------|-------------|--------|
|-------------|-3-3---3-3---|-------------|-3-3---2-2---|--2-----|
|-0-----0-----|-------------|-0-----0-----|-------------|--------|


 Chorus
   G              Em7            G              Asus4
  Gtr IV (dist gtr)
|--3-----------|--------------|--3-----------|-----------|
|--3-----------|--3-----------|--3-----------|--3--------|
|--0-----------|--0-----------|--0-----------|--2--------|
|--0-----------|--2-----------|--0-----------|--2--------|
|--2-----------|--2-----------|--2-----------|--0--------|
|--3-----------|--0-----------|--3-----------|-----------|
|
| Gtr V (slight dist)
|----3---------|--------------|----3---------|-----------|
|------3-------|--------------|------3---3---|-----------|
|--0-------0---|------0-----0-|--0-----0---0-|--2----2---|
|--------0---0-|----2-----2---|--------------|--2----2---|
|--------------|--------------|--------------|--0--0-0---|
|--------------|--0-----0-----|--------------|-----------|


  G              Asus4       G              Asus4
|--3-----------|-----------|--3-----------|-----------|
|--3-----------|--3--------|--3-----------|--3--------|
|--0-----------|--2--------|--0-----------|--2--------|
|--0-----------|--2--------|--0-----------|--2--------|
|--2-----------|--0--------|--2-----------|--0--------|
|--3-----------|-----------|--3-----------|-----------|
|
|----3---------|-----------|----3---------|-----------|
|------3---3---|-----------|------3---3---|-----------|
|--0-----0---0-|--2----2---|--0-----0---0-|--2----2---|
|--------------|--2----2---|--------------|--2----2---|
|--------------|--0--0-0---|--------------|--0--0-0---|
|--------------|-----------|--------------|-----------|


  G              Em7            G              Asus4
|--3-----------|--------------|--3-----------|-----------|
|--3-----------|--3-----------|--3-----------|--3--------|
|--0-----------|--0-----------|--0-----------|--2--------|
|--0-----------|--2-----------|--0-----------|--2--------|
|--2-----------|--2-----------|--2-----------|--0--------|
|--3-----------|--0-----------|--3-----------|-----------|
|
|----3---------|--------------|----3---------|-----------|
|------3-------|--------------|------3---3---|-----------|
|--0-------0---|------0-----0-|--0-----0---0-|--2----2---|
|--------0---0-|----2-----2---|--------------|--2----2---|
|--------------|--------------|--------------|--0--0-0---|
|--------------|--0-----0-----|--------------|-----------|

                                                 
  G              Asus4       G              Asus4
|--3-----------|-----------|--3-----------|-----------|---------|
|--3-----------|--3--------|--3-----------|--3--------|-(3)-----|
|--0-----------|--2--------|--0-----------|--2--------|-(2)-----|
|--0-----------|--2--------|--0-----------|--2--------|-(2)-----|
|--2-----------|--0--------|--2-----------|--0--------|-(0)-----|
|--3-----------|-----------|--3-----------|-----------|---------|
|
|----3---------|-----------|----3---------|-----------|---------|
|------3---3---|-----------|------3---3---|-----------|---------|
|--0-----0---0-|--2----2---|--0-----0---0-|--2----2---|-(2)-----|
|--------------|--2----2---|--------------|--2----2---|-(2)-----|
|--------------|--0--0-0---|--------------|--0--0-0---|-(0)-----|
|--------------|-----------|--------------|-----------|---------|


 Verse 2
  (Em)    (C)       (Em)      (C)
  Gtr III
|-------|---------|---------|-----------|
|-------|---------|---------|-----------|
|-------|---------|---------|-----------|
|-------|---------|---------|-----------|
|-------|-3---3---|---------|-3-3--2-2--|
|-------|---------|-0---0---|-----------|


  (Em)       (C)          (Em)       (C)
|----------|------------|----------|----------------|
|----------|------------|----------|----------------|
|----------|------------|----------|----------------|
|----------|------------|----------|----------------|
|----------|--3-3--3-3--|----------|--3-3----2---2--|
|--0---0---|------------|--0---0---|----------------|
|
| Gtr IV
|----------|------------|----------|----------------|
|----------|------------|----------|----------------|
|-16-------|-17---------|-16-------|-17----(17)\----|
|----------|------------|----------|----------------|
|-14-------|-15---------|-14-------|-15----(15)\----|
|----------|------------|----------|----------------|


  (Em)          (C)               (Em)           (C)
|--------------|-----------------|--------------|-----------------|
|--------------|-----------------|--------------|-----------------|
|--------------|-----------------|--------------|-----------------|
|--------------|-----------------|--------------|-2-------2-------|
|--------------|-3-------3-------|--------------|-----------------|
|-0-----0------|-----------------|-0-----0------|-----------------|
|
|--------------|-----------------|--------------|-----------------|
|--------------|-----------------|--------------|-----------------|
|---9-9---9/11-|---11/12---12\11-|---9-9---9/11-|---11/12---12/14-|
|--------------|-----------------|--------------|-----------------|
|---7-7---7/9--|----9/10---10\9--|---7-7---7/9--|----9/10---10/12-|
|--------------|-----------------|--------------|-----------------|


  (Em)          (C)               (Em)           (C)
|--------------|-----------------|--------------|-----------------|
|--------------|-----------------|--------------|-----------------|
|--------------|-----------------|--------------|-----------------|
|--------------|-----------------|--------------|-2--------2------|
|--------------|-3-------3-------|--------------|-----------------|
|-0-----0------|-----------------|-0-----0------|-----------------|
|
|--------------|-----------------|--------------|-----------------|
|--------------|-----------------|--------------|-----------------|
|---9-9---9/11-|---11/12---12\11-|-9-------9/11-|-11/12-12-14\----|
|--------------|-----------------|--------------|-----------------|
|---7-7---7/9--|----9/10---10\9--|-7-------7/9--|--9/10-10-12\----|
|--------------|-----------------|--------------|-----------------|

 
Play Chorus again...


 Bridge
  C                         Em
|-0------------|----------|-0--------|--------------|
|-1------------|----------|-0--------|--------------|
|-0------------|----------|-0--------|--------------|
|-2------------|----------|-2--------|--------------|
|-3------------|----------|-2--------|--------------|
|--------------|----------|-0--------|--------------|
|
|------7--(7)\-|--3-------|------3---|--------------|
|--------------|----------|----------|--5-----------|
|----9---------|----------|----4-----|------------7-|
|--------------|----------|----------|--------------|
|--------------|----------|----------|--------------|
|--------------|----------|----------|--------------|


  G                   Am
|-3------|----------|--0----------|--0--------------|
|-3------|----------|--1----------|--1--------------|
|-0------|----------|--2----------|--2--------------|
|-0------|----------|--2----------|--2--------------|
|-2------|----------|--0----------|--0--------------|
|-3------|----------|-------------|-----------------|
|
|-5------|----------|-------------|-----------------|
|--------|--8-------|-10/12--10---|-----------8/10--|
|--------|----------|-------------|-----------------|
|--------|----------|-------------|-----------------|
|--------|----------|-------------|-----------------|
|--------|----------|-------------|-----------------|


  Am
|--0------------|----------------||
|--1------1-1-1-|--1-1-1--1--1-1-||
|--2------2-2-2-|--2-2-2--2--2-2-||
|--2------2-2-2-|--2-2-2--2--2-2-||
|--0------0-0-0-|--0-0-0--0--0-0-||
|---------------|----------------||
|
|---------------|----------------||
|-10/12--13-----|-12-----12\-----||
|---------------|----------------||
|---------------|----------------||
|---------------|----------------||
|---------------|----------------||


 Chorus 3
  G              Em7            G              Asus4
|--3-----------|--------------|--3-----------|------------|
|--3-----------|--3-----------|--3-----------|--3---------|
|--0-----------|--0-----------|--0-----------|--2---------|
|--0-----------|--2-----------|--0-----------|--2---------|
|--2-----------|--2-----------|--2-----------|--0---------|
|--3-----------|--0-----------|--3-----------|------------|
|
|----3---------|--------------|----3---------|------------|
|------3-------|--------------|------3---3---|------------|
|--0-------0---|------0-----0-|--0-----0---0-|--2----2----|
|--------0---0-|----2-----2---|--------------|--2----2--2-|
|--------------|--------------|--------------|--0--0-0----|
|--------------|--0-----0-----|--------------|------------|


  G              Asus4        G              Asus4
|--3-----------|------------|--3-----------|------------|
|--3-----------|--3---------|--3-----------|--3---------|
|--0-----------|--2---------|--0-----------|--2---------|
|--0-----------|--2---------|--0-----------|--2---------|
|--2-----------|--0---------|--2-----------|--0---------|
|--3-----------|------------|--3-----------|------------|
|
|----3---------|------------|----3---------|------------|
|------3---3---|------------|------3---3---|------------|
|--0-----0---0-|--2----2----|--0-----0---0-|--2----2----|
|--------------|--2----2--2-|--------------|--2----2--2-|
|--------------|--0--0-0----|--------------|--0--0-0----|
|--------------|------------|--------------|------------|



  G              Em7            G              Asus4
|--3-----------|--------------|--3-----------|------------|
|--3-----------|--3-----------|--3-----------|--3---------|
|--0-----------|--0-----------|--0-----------|--2---------|
|--0-----------|--2-----------|--0-----------|--2---------|
|--2-----------|--2-----------|--2-----------|--0---------|
|--3-----------|--0-----------|--3-----------|------------|
|
|----3---------|--------------|----3---------|------------|
|------3-------|--------------|------3---3---|------------|
|--0-------0---|------0-----0-|--0-----0---0-|--2----2----|
|--------0---0-|----2-----2---|--------------|--2----2--2-|
|--------------|--------------|--------------|--0--0-0----|
|--------------|--0-----0-----|--------------|------------|


  G              Asus4        G              Asus4
|--3-----------|------------|--3-----------|----------||
|--3-----------|--3---------|--3-----------|--3-------||
|--0-----------|--2---------|--0-----------|--2-------||
|--0-----------|--2---------|--0-----------|--2-------||
|--2-----------|--0---------|--2-----------|--0-------||
|--3-----------|------------|--3-----------|----------||
|
|----3---------|------------|----3---------|----------||
|------3---3---|------------|------3---3---|----------||
|--0-----0---0-|--2----2----|--0-----0---0-|--2---2---||
|--------------|--2----2--2-|--------------|--2---2---||
|--------------|--0--0-0----|--------------|--0---0---||

|--------------|------------|--------------|----------||


   G             Em              G               Asus4
|--3-----------|---------------|---------------|---------------|
|--3-----------|---------------|---------------|---------------|
|--0-----------|---------------|---------------|---------------|
|--0-----------|---------------|---------------|---------------|
|--2-----------|---------------|---------------|---------------|
|--3-----------|---------------|---------------|---------------|
|
| Gtr I (organ)
|--------------|---------0-----|---------------|---------------|
|--------3-----|-------0---0---|---------3-----|---------------|
|--4---4---4---|-----0-------0-|--4----4---4---|--2----0-2-0-2-|
|----5-------5-|--2------------|-----5-------5-|-----0---------|
|--------------|---------------|---------------|---------------|
|--------------|---------------|---------------|---------------|


  G             Asus4         G             Asus4
|-------------|-------------|-------------|-------------|--------------||
|-------3-----|-------------|-------3-----|-------------|--------------||
|-4---4---4---|-2---0-2-0-2-|-4---4---4---|-2---0-2---0-|-2---0-2---0--||
|---5-------5-|---0---------|---5-------5-|---0-----0---|---0-----0----||
|-------------|-------------|-------------|-------------|--------------||
|-------------|-------------|-------------|-------------|--------------||


   Outro
    Em             C            Em             C
    (synth)                                                 2x
||---------------|------------|--------------|--------------||
||o--------------|------------|--------------|-------------o||
||---4-2-0-------|------0-4---|--4-2-0-------|------0-4-----||
||---------4-2-0-|--2-4-------|--------4-2-0-|--2-4---------||
||o--------------|------------|--------------|-------------o||
||---------------|------------|--------------|--------------||
|
|   Gtr V
||---------------|------------|--------------|--------------||
||o--------------|------------|--------------|-------------o||
||--16-----------|-17---------|-16-----------|-17-----------||
||---------------|------------|--------------|--------------||
||o-14-----------|-15---------|-14-----------|-15----------o||
||---------------|------------|--------------|--------------||
|
|   (clean)
||---------------|------------|--------------|--------------||
||o--------------|------------|--------------|-------------o||
||---------------|------------|--------------|--------------||
||---------------|------------|--------------|--------------||
||o--------------|--3-----3---|--------------|--3-----2----o||
||---0-----0-----|------------|--0-----0-----|--------------||


  Em               C              Em               C
|----------------|--------------|----------------|------------|
|----------------|--------------|----------------|------------|
|--4---2-0-------|------0-4-----|--4---2-0-------|------0-4---|
|----------4-2-0-|--2-4---------|----------4-2-0-|--2-4-------|
|----------------|--------------|----------------|------------|
|----------------|--------------|----------------|------------|
|
|----------------|--------------|----------------|------------|
|----------------|--------------|----------------|------------|
|-16-------------|-17-----------|-16-------------|-17---------|
|----------------|--------------|----------------|------------|
|-14-------------|-15-----------|-14-------------|-15---------|
|----------------|--------------|----------------|------------|
|
| (dist)
|----------------|--------------|----------------|------------|
|----------------|--------------|----------------|------------|
|----------------|--------------|--4-------7-----|--5-4---7---|
|----5---4-7-5-4-|----4-5-7-5-4-|----7---5-------|------5-----|
|--7-------------|--7-----------|----------------|------------|
|----------------|--------------|----------------|------------|


  Em               C              Em
|----------------|--------------|---------|-----*|
|----------------|--------------|---------|-----*|
|--4---2-0-------|------0-4-----|---------|-----*|
|----------4-2-0-|--2-4---------|---------|-----*|
|----------------|--------------|---------|-----*|
|----------------|--------------|---------|-----*|
|
|----------------|--------------|---------|-----*|
|----------------|--------------|---------|-----*|
|-16-------------|-17-----------|-16------|-----*|
|----------------|--------------|---------|-----*|
|-14-------------|-15-----------|-14------|-----*|
|----------------|--------------|---------|-----*|
|
|----------------|--------------|---------|-----*|
|----------------|--------------|---------|-----*|
|----------------|--------------|---------|-----*|
|----5---4-7-5-4-|----4-5-7-5-4-|--4------|-----*|
|--7-------------|--7-----------|---------|-----*|
|----------------|--------------|---------|-----*|


Tablature Legend
----------------
(#) - note is held and not played
||o - repeat start
o|| - repeat end


Generated using Power Tab Editor by Brad Larsen
http://power-tab.net

Comments about this tab

No comments/corrections found. Add your own

Complimentary Christian Ringtones
Dadamobile and CGR have teamed up to bring your favorite Christian artists right to your phone. Sign up today and get 10 complementary ringtones!
Tab Country
Did you know CGR has a sister site w/ country guitar tabs? Well we do! Its called Tab Country. It has a great archive with a lot of country tabs.
Rockin Tabs
Are you looking for a site that has rock guitar tabs? Then Rockintabs.com is the place for you. It is a budding site with many rock guitar tabs. Submit your tab today.
Tab Gallery
Tab Gallery has a compilation of christian, rock, and country tabs all in one place. Come visit us.