Guitar Tabs
song title    band name

Join Us Today!

Don't strum alone...
be a part of the largest online Christian music community. Browse thousands of guitar tabs and chat w/ musicians like yourself.


It's Free!

This tab has been rated a 2.54 out of 5 for accuracy. (13 votes)Sorry, but you must be logged in to rate this tab.
Click here to log-in, or you can click here to register.
(Registration is free)

All songs owned by corresponding publishing company. If you make copies of any song on this website, be sure to report your usage to CCLI.
Submitted by: teenspirit89

Pressing On
Relient K

This is 100% correct

D------3s4----3-1------3s4-----3-1
A-4--4-------------1-1-----2-2----    REPEAT ABOUT 16 TIMES
E----------4-4--------------------


Email me about it at 
NRVNA89@YAHOO.COM
Later

Comments about this tab

WWJD-4-U? - 2004-09-01

DUDE, wheres the chorus???. huh, where. anyway good job on the intro. :')=


honestfool84 - 2004-09-06

i voted you a one cause you said that this tab was 100% without doubt correct...well, you wrote the 2 on the A string, and it should be on the E string...so...


epiphonesrcool - 2004-11-03

no its not right there are not single notes there are power chords


Music Man 043 - 2005-02-11

I agree with honestfool84 the 2 should be on the e string but other than that its perfect


Sammy D - 2005-03-31

i played it like it is shown about at first too
but it didn't sound as full as it does when mr. matt t
plays it so i messed around with it for a while and came up with this


G--6-xx-------------------------------------------------------
D--6-xx------6-6x------8-xx------4-4x-------------------------
A--4-xx-8hp9-6-6x-8hp6-8-xx-8hp9-4-4x-8hp6--------------------
E------------4-4x------6-xx------2-4x-------------------------

this is 100% the most fun and accurate way to play it once you get the rythm down :) so go my friends and enjoy!!


guitar__freak - 2005-04-26

actually the intro goes like this:

e---------------------------------------
B---------------------------------------
G--6------------------------------------
D--6-------6-6----------8-------4-4-----
A--4--6h8--6-6--8-6-----8--6h8--4-4--8-6
E----------4-4----------6-------2-2-----


IlUvSwItChFoOt - 2005-05-19

(guitar freak) was pretty close but here is the intro tab.

e-------------------------------]
B-------------------------------]
G-------------------------------]
D-6-3h4-----------------3~p1----]
A-4-----66-8~p6-8-6h8-44--------]
E-------44-----6-----22---------]


IlUvSwItChFoOt - 2005-05-19

hey on my tab take out the 6 on E. My mistake


blazer - 2005-06-04

i'm new to tabs and don't understand everything about them could someone tell me what h means thanks


christ 4 real - 2005-07-24

hey h means hammer which is when you dont pick the next note but just put your finger on it hard therefore the word hammer is used


Benothy - 2005-11-05

Um... I play it like this...which sounds right...lol. and its easy

D--6----3h4--------3\1----3----3h4--------3\1------------
A--4----------66----------1----------44------------------
E-------------44---------------------22------------------


gsus_freak7 - 2006-01-14

I truly think that Bethany put the right post on. I sounds the best to me.
(And its easy to understand, lol)


bigntalboy13 - 2006-06-28

me and my totaly insanly good gutiar teacher tabed this song together and he
came up with excactly what bethany posted, play it that way, if it doen't
sound full enough, turn up the volume! moron


bigntalboy13 - 2006-06-28

except i usualy play this song in drop d, so the two power chords on the E and A string would be different


Add a comment/correction

Complimentary Christian Ringtones
Dadamobile and CGR have teamed up to bring your favorite Christian artists right to your phone. Sign up today and get 10 complementary ringtones!
Tab Country
Did you know CGR has a sister site w/ country guitar tabs? Well we do! Its called Tab Country. It has a great archive with a lot of country tabs.
Rockin Tabs
Are you looking for a site that has rock guitar tabs? Then Rockintabs.com is the place for you. It is a budding site with many rock guitar tabs. Submit your tab today.
Tab Gallery
Tab Gallery has a compilation of christian, rock, and country tabs all in one place. Come visit us.