Guitar Tabs
song title    band name

Join Us Today!

Don't strum alone...
be a part of the largest online Christian music community. Browse thousands of guitar tabs and chat w/ musicians like yourself.


It's Free!

This tab has not yet been rated for accuracy.Sorry, but you must be logged in to rate this tab.
Click here to log-in, or you can click here to register.
(Registration is free)

All songs owned by corresponding publishing company. If you make copies of any song on this website, be sure to report your usage to CCLI.
Submitted by: IncuThrice07

-------------------------------------------------------------------------------
                         RISK - Ten Shekel Shirt
--------------------------------------------------------------------------------

By:  Gary(garyhale@spu.edu)

>   - strumming not defined
~   - let ring out
p   - pull off
h   - hammer on
x
x   - scratching
x
/ \ - slide

GUITAR 1'S PARTS:
-----------------
Intro:  (Come in after 1st time around)  (2x)
e|---------------------------------------------------------------------------|
B|---------------------------------------------------------------------------|
G|-4>---4>---4>>-------------------------------------------------------------|
D|-4>---4>---4>>-------------------------------------------------------------|
A|-2>---4>---2>>-------------------------------------------------------------|
E|------2>---0>>-------------------------------------------------------------|

Verse:
e|---------------------------------------------------------------------------|
B|---------------------------------------------------------------------------|
G|----4--4--4----------4---4--4-------4-----4---4-------------4--4--4--------|
D|----4--4--4----------4---4--4-------4-----4---4-------------4--4--4--------|
A|----2--4--2----------2---4--2-------2-----4---2-------------2--4--2--------|
E|-------2--0--------------2--0-------------2---0----------------2--0--------|
  It all begins with a risk,     cuz you're desire is for this.

Pre Chorus:
e|---------------------------------------------------------------------------|
B|---------------------------------------------------------------------------|
G|-8-----------9----------13-----11------9-----------------------------------|
D|-9-----------9----------13-----11------9-----------------------------------|
A|-6-----------7----------11-----13------7-----------------------------------|
E|---------------------------------------------------------------------------|
     to be loved and to love is what everything is all about.

Chorus:
e|---------------------------------------------------------------------------|
B|---------------------------------------------------------------------------|
G|4------4--------4--------4-------------------4--4------4--------4----------|
D|4------2--------4--------2-------------------4--2------4--------2----------|
A|2------2--------2--------2-------------------2--2------2--------2----------|
E|-------0-----------------0----------------------0---------------0----------|
  I'm allowed to live to make the Maker smile, I vow to give the best years

Chorus Cont'd:
e|---------------------------------------------------------------------------|
B|---------------------------------------------------------------------------|
G|---------------------------------------------------------------------------|
D|-------2~------------------------------------------------------------------|
A|-------2~------------------------------------------------------------------|
E|-------0~------------------------------------------------------------------|
  of my life.

Repeat Intro

Repeat Verse

Repeat Chorus

Bridge:  "Best years of my life..."
e|---------------------------------------------------------------------------|
B|--------------------------------9--9-----5-5------9--9--9--9--9--9--9--9---|
G|-------------6~------9-9-9------8--8-----6-6------8--8--8--8--8--8--8--8---|
D|-2~----6~----6~------6-6-6-x-x-10-10-x-x-6-6-x-x-10-10-10-10-10-10-10-10---|
A|-2~----6~----4~----7-7-7-7-x-x-------x-x-4-4-x-x---------------------------|
E|-0~----4~------------------x-x-------x-x-----x-x---------------------------|

Bridge Cont'd:
e|---------------------------------------------------------------------------|
B|---------------------------------------------------------------------------|
G|8------------9-----------8------------9------------13-----11------9--------|
D|9------------9-----------9------------9------------13-----11------9--------|
A|6------------7-----------6------------7------------11-----13------7--------|
E|---------------------------------------------------------------------------|
      To be loved, ........., and to love like you love is what everything

Bridge Cont'd:
e|---------------------------------------------------------------------------|
B|---------------------------------------------------------------------------|
G|---------------------------------------------------------------------------|
D|---------------------------------------------------------------------------|
A|---------------------------------------------------------------------------|
E|---------------------------------------------------------------------------|
  is all about.

Repeat Chorus

Last Chorus:
e|---------------------------------------------------------------------------|
B|---------------------------------------------------------------------------|
G|4------4-------4------4---------------------4-----4------4--------4--------|
D|4------2-------4-4----2---------------------4-----2------4-4------2--------|
A|2------2-------2-4----2---------------------2-----2------2-4------2--------|
E|-------0---------2----0---------------------------0--------2------0--------|
  Right now, I live to make the Maker smile.  I'm free to give the best...

Outro:
e|---------------------------------------------------------------------------|
B|---------------------------------------------------------------------------|
G|---4>>>--4~----------------------------------------------------------------|
D|---4>>>--4~----------------------------------------------------------------|
A|---2>>>--2~----------------------------------------------------------------|
E|---------------------------------------------------------------------------|

GUITAR 2'S PARTS:
-----------------
Intro:  (2x)
e|11----11----11p9----9-----11---11---11h12---12-----9---9---9h11---11-------|
B|---11----11------11---7/9----9----9-------9----9\7---7---7------7----------|
G|---------------------------------------------------------------------------|
D|---------------------------------------------------------------------------|
A|---------------------------------------------------------------------------|
E|---------------------------------------------------------------------------|

Intro Cont'd:
e|----7---7-------7-----7----------------------------------------------------|
B|7\5---5---5-4h5---4h5------------------------------------------------------|
G|---------------------------------------------------------------------------|
D|---------------------------------------------------------------------------|
A|---------------------------------------------------------------------------|
E|---------------------------------------------------------------------------|

Verse:  (Play Guitar 1's intro part)

Pre Chorus:  "To be loved..."
e|11-11-11-11-11-11-11-11-11-11-11-11-11-11-11-11-12-12-12-12-12-12-12-12-12-|
B|---------------------------------------------------------------------------|
G|---------------------------------------------------------------------------|
D|---------------------------------------------------------------------------|
A|---------------------------------------------------------------------------|
E|---------------------------------------------------------------------------|

Pre Chorus Cont'd:
e|12-12-12-12-12-12-12-------------------------------14-------14-6-6-6-6-6-6-|
B|---------------------12-12-12-12-12-12-12-12-11h12----11h12----5-5-5-5-5-5-|
G|---------------------13-13-13-13-13-13-13-13-------------------------------|
D|---------------------------------------------------------------------------|
A|---------------------------------------------------------------------------|
E|---------------------------------------------------------------------------|

Pre Chorus Cont'd:
e|6-6-6-6-6-6-6-6-6-6--------------------------------------------------------|
B|5-5-5-5-5-5-5-5-5-5--------------------------------------------------------|
G|---------------------------------------------------------------------------|
D|---------------------------------------------------------------------------|
A|---------------------------------------------------------------------------|
E|---------------------------------------------------------------------------|

Chorus:  "I'm allowed..."  (4x)
e|----9---------9---------9---------9----------------------------------------|
B|--7---7----7----7-----7---7----7----7--------------------------------------|
G|8--------8--------8-9--------9--------9------------------------------------|
D|---------------------------------------------------------------------------|
A|---------------------------------------------------------------------------|
E|---------------------------------------------------------------------------|

Repeat Intro

Repeat Verse

Repeat Pre Chorus

Repeat Chorus

Bridge:  "Best years of my life..."  (Play first part all kinds)
e|-------9p7---|--------------11p9---11p9---11p9-----------------------------|
B|-----7-----7-|-------------------9------9----------------------------------|
G|-8h9---------|---------------(Played at end)-------------------------------|
D|-------------|-------------------------------------------------------------|
A|-------------|-------------------------------------------------------------|
E|-------------|-------------------------------------------------------------|

Pre Chorus:  "To be loved..."  (2x)
e|11-11-11-11-11-11-11-11-11-11-11-11-12-12-12-12-12-12-12-12-12-12-12-12----|
B|---------------------------------------------------------------------------|
G|---------------------------------------------------------------------------|
D|---------------------------------------------------------------------------|
A|---------------------------------------------------------------------------|
E|---------------------------------------------------------------------------|

Pre Chorus Cont'd:
e|------------------------------14-------14-18-18-18-18-18-18-18-18-18-18-18-|
B|12-12-12-12-12-12-12-12-11h12----11h12-------------------------------------|
G|13-13-13-13-13-13-13-13----------------------------------------------------|
D|---------------------------------------------------------------------------|
A|---------------------------------------------------------------------------|
E|---------------------------------------------------------------------------|

Pre Chorus Cont'd:
e|18-18-18-18-18-------------------------------------------------------------|
B|---------------------------------------------------------------------------|
G|---------------------------------------------------------------------------|
D|---------------------------------------------------------------------------|
A|---------------------------------------------------------------------------|
E|---------------------------------------------------------------------------|

Repeat Chorus:  (8x)

Outro:  (Repeat a lot)  Ending:
e|------7-------------|------------------------------------------------------|
B|---------7----------|---9-9-9-7-7-7-7-7-4~---------------------------------|
G|--------------------|------------------------------------------------------|
D|--------------------|------------------------------------------------------|
A|--------------------|------------------------------------------------------|
E|--------------------|------------------------------------------------------|

Sorry if I missed a couple parts here and there.
===============================================================================

Comments about this tab

No comments/corrections found. Add your own

Complimentary Christian Ringtones
Dadamobile and CGR have teamed up to bring your favorite Christian artists right to your phone. Sign up today and get 10 complementary ringtones!
Tab Country
Did you know CGR has a sister site w/ country guitar tabs? Well we do! Its called Tab Country. It has a great archive with a lot of country tabs.
Rockin Tabs
Are you looking for a site that has rock guitar tabs? Then Rockintabs.com is the place for you. It is a budding site with many rock guitar tabs. Submit your tab today.
Tab Gallery
Tab Gallery has a compilation of christian, rock, and country tabs all in one place. Come visit us.