Guitar Tabs
song title    band name

Join Us Today!

Don't strum alone...
be a part of the largest online Christian music community. Browse thousands of guitar tabs and chat w/ musicians like yourself.


It's Free!

This tab has been rated a 5.00 out of 5 for accuracy. (14 votes)Sorry, but you must be logged in to rate this tab.
Click here to log-in, or you can click here to register.
(Registration is free)

All songs owned by corresponding publishing company. If you make copies of any song on this website, be sure to report your usage to CCLI.
Submitted by: IncuThrice07

-------------------------------------------------------------------------------
                 REVIVE ME - Jeremy Camp
-------------------------------------------------------------------------------

By:  Gary(garyhale@spu.edu)

~   - let ring out
/   - slide
p   - pull off
h   - hammer on

Intro:
e|--------------------------------------------------0------------------------|
B|---------3-----3-----3-------------3----------3-----3----------------------|
G|0-----2----2---2--------0----0--------0---------0-----0--------------------|
D|--0----------0---0--------0----2--------2---0------------------------------|
A|------------------------------------------3--------------------------------|
E|3---3----------2---2---------0---0-----------------------------------------|

Verse:  
e|----------------------3-------------------------3--------------------------|
B|----------3-----3--------3------------3---3--------3-----------------------|
G|0-----2-----2-----0--------0-0-----2----0---0--------0---------------------|
D|--0-----------0----------------0-------------------------------------------|
A|----------------3---3---------------------3---3----------------------------|
E|3---3---3--------------------3---3-----------------------------------------|

Verse Cont'd:
e|--------------------------------------------------0------------------------|
B|---------3-----3-----3-------------3----------3-----3----------------------|
G|0-----2----2---2--------0----0--------0---------0-----0--------------------|
D|--0----------0---0--------0----2--------2---0------------------------------|
A|------------------------------------------3--------------------------------|
E|3---3----------2---2---------0---0-----------------------------------------|

Verse Cont'd:
e|----------------------3-------------------------3--------------------------|
B|----------3-----3--------3------------3---3--------3-----------------------|
G|0-----2-----2-----0--------0-0-----2----0---0--------0---------------------|
D|--0-----------0----------------0-------------------------------------------|
A|----------------3---3---------------------3---3----------------------------|
E|3---3---3--------------------3---3-----------------------------------------|

Verse Cont'd:
e|--------------------------------------------------3------------------------|
B|---------3-----3-----3-------------3----------3-----3----------------------|
G|0-----2----2---2--------0----0--------0---------------0--------------------|
D|--0----------0---0--------0----2--------2----------------------------------|
A|------------------------------------------2/3---3--------------------------|
E|3---3----------2---2---------0---0-----------------------------------------|

Chorus:  "Revive me...(4x)                               4th time, ring out:
e|--------------------------------------------------3-----|------------------|
B|---------3-----3-----3-------------3----------3-----3---|---3~-------------|
G|0-----2----2---2--------0----0--------0---------------0-|---0~-------------|
D|--0----------0---0--------0----2--------2---------------|---0~-------------|
A|------------------------------------------2/3---3-------|---3~-------------|
E|3---3----------2---2---------0---0----------------------|------------------|

Repeat Verse

Repeat Chorus 3x

4th time of Chorus:
e|------------------------------------0---------------0----------------------|
B|---------3-----3-----3----------3-----3---3-----3-----3--------------------|
G|0-----2----2---2--------0---------------0---------------0------------------|
D|--0----------0---0--------0---0---------------0----------------------------|
A|----------------------------3-----3---------3-----3-------3----------------|
E|3---3----------2---2-------------------------------------------------------|

Bridge:
e|---------------------------------------------------------------------------|
B|--------1p0-------------3---------------3---------------3------------------|
G|----0-------0-------2-----2---2-----0---0h2-0-------0---0h2-0--------------|
D|--2---2-------2---0---0-----0-----0---0-------0---0---0-------0------------|
A|0--------------------------------------------------------------------------|
E|----------------2---------------3---------------3--------------------------|

Bridge Cont'd:
e|---------------------------------------------------------------------------|
B|------0h1--------------3---------------3---------------3-------------------|
G|----2-----2-0------2-----2---2-----0---0h2-0-------0---0h2-0---------------|
D|--2--------------0---0-----0-----0---0-------0---0---0-------0-------------|
A|0--------------------------------------------------------------------------|
E|---------------2---------------3---------------3---------------------------|

Bridge Cont'd:
e|-------------------------------------------------------0-------------------|
B|------0h1--------------3---------------3-----------------3-----------3-----|
G|----2-----2-0------2-----2---2-----0---0h2-0-------0-------0-----0-----0---|
D|--2--------------0---0-----0-----0---0-------0---0-------------4---------4-|
A|0----------------------------------------------2-----2-------3-----3-------|
E|---------------2---------------3-------------------------------------------|

Bridge Cont'd:
e|--------2p0-------|
B|----3-------3-----|
G|--0-----------0---|
D|0-----0-----------|
A|------------------|
E|------------------|

Repeat Chorus

Ending: (Repeat lots)  End on:
e|---0---------------|-------------------------------------------------------|
B|-----3-------------|-------------------------------------------------------|
G|-------0-----------|-------------------------------------------------------|
D|-------------------|-------------------------------------------------------|
A|-3-----------------|-------3~----------------------------------------------|
E|-------------------|-------------------------------------------------------|

If you have any tab requests, gimme an e-mail.  garyhale@spu.edu

Comments about this tab

walkwjc - 2004-09-20

Awesome song. I think this would be capo 1 to play along with the CD. Other than that I think it is a great tab.


Gnarley Sick - 2005-01-18

God has deffinately given you a talent to be able to take a song like that and tell what note is what and where it goes. God bless


TheJediMaster - 2005-01-31

I agree one the fact that this song should be on CAPO 1. Otherwise I'm really impressed. Great song! God Bless!


HeAvEnPoWeR19 - 2005-02-27

Great tab. A few things about it though. In the Intro I think that you change chords to quickly. You should stay on the D chord until the very first note of the Emin7. Listen to the CD for the strong chord changes. Speaking of listening to the CD, I don't agree with the other guys about the song being capo 1. I freshly tuned my guitar with an electronic tuner in standard 440 open tuning and I play along with the CD just fine!

Anyway, it is a very good tab and I think you for tabbing it so that others could learn it!


takamine cory - 2005-03-01

good job great tab


tennisguy224 - 2005-03-03

to clear things up a little, it's played open (no capo) i've been playing this song for a while, this guy pretty much nailed the tab, great job man

God bless,
Shane


Strumming4Jesus - 2005-03-08

woah...=o..haha
thats awsome man....sounds GREAT to me....i prefer without a capo, but thats jus me

Rockin' for mi Cristo
~Steven


kamikaze11202 - 2005-03-18

There's no capo. Hey excellent job on this tab!!


FollowtheKing - 2005-03-31

I'm not much of a guitar player so this question may be stupid but how do you play the two strings at the same time with other strings between (ex. the first note of the intro). I'm assuming that you have to do it without a pick?


katsumi - 2005-04-03

ya pick the strings with your fingers at the same time. u can use finger picks to pluck to strings 2. anyways, maybe this song is played in a different key...


TheJediMaster - 2005-04-04

I tuned my guitar to 440 tuning and found oout there is no capo. One part of the tab that sounds different on the CD is in the chorus. At the end you have the ta listed like this:
e----0-0--
B-------3-
G--------0
D2--------
A-2/3-3---
E---------

On the CD it sounds like this to me, although I could be wrong:

e----0-3--
B-------3-
G--------0
D2--------
A-2/3-3---
E---------


TheJediMaster - 2005-04-04

Nevermind my previous comment, I had a brain fart!


jiggyfly18 - 2005-04-10

Great Tab! You hit it right on the dot


chickachonk - 2005-07-30

AWESOME job, man. really hit it on the dot. please keep tabbin' so we can keep rockin for God.


Mar-T - 2005-11-06

Great Job. It'll take me awhile to learn this one. But as I play more and more it sounds great. Wow, it's like exactly note for note. Awesome.


FenderNl05 - 2007-01-02

this tab is amazing bravo!!! did jeremy post this himself lol??? jp


FenderNl05 - 2007-01-02

this tab is amazing bravo!!! did jeremy post this himself lol??? jp


Add a comment/correction

Complimentary Christian Ringtones
Dadamobile and CGR have teamed up to bring your favorite Christian artists right to your phone. Sign up today and get 10 complementary ringtones!
Tab Country
Did you know CGR has a sister site w/ country guitar tabs? Well we do! Its called Tab Country. It has a great archive with a lot of country tabs.
Rockin Tabs
Are you looking for a site that has rock guitar tabs? Then Rockintabs.com is the place for you. It is a budding site with many rock guitar tabs. Submit your tab today.
Tab Gallery
Tab Gallery has a compilation of christian, rock, and country tabs all in one place. Come visit us.