Guitar Tabs
song title    band name

Join Us Today!

Don't strum alone...
be a part of the largest online Christian music community. Browse thousands of guitar tabs and chat w/ musicians like yourself.


It's Free!

This tab has been rated a 5.00 out of 5 for accuracy. (14 votes)Sorry, but you must be logged in to rate this tab.
Click here to log-in, or you can click here to register.
(Registration is free)

All songs owned by corresponding publishing company. If you make copies of any song on this website, be sure to report your usage to CCLI.
Submitted by: IncuThrice07

-------------------------------------------------------------------------------
                  I STILL BELIEVE - Jeremy Camp
-------------------------------------------------------------------------------

By:  Gary(garyhale@spu.edu)

CAPO 1ST FRET!!!

h    - hammer on
~    - let ring out


GUITAR 1'S PARTS:
-----------------
Intro:  (2x)                         Play after 2nd time:
e|----------------------------------|----------------------------------------|
B|----3-------3---------3-------3---|-----3-------3--------------------------|
G|--2---2---2---2-----2---2---2---2-|---2---2---2---2------------------------|
D|0---------------------------------|----------------------------------------|
A|--------4-------------------------|----------------------------------------|
E|----------------0h2-------3-------|-3-------3------------------------------|

Verse:  "Scattered birds..."  (4x)
e|--------------------------------------|
B|----3-------3---------3-------3-------|
G|--2---2---2---2-----2---2---2---2-----|
D|0-------------------------------------|
A|--------4-----------------------------|
E|----------------0h2-------3-----------|

Pre Chorus:
e|---------------------0-----------------------------------------------------|
B|----------3----------0------------3----------------------------3-----------|
G|----------4----------2------------2----------------------------4-----------|
D|----------4----------2------------0----------------------------4-----------|
A|----------2----------0------------x----------------------------2-----------|
E|----------------------------------3----------------------------------------|
  

Pre Chorus Cont'd:
e|0---------------------|
B|0--------------3------|
G|2--------------2------|
D|2--------------0------|
A|0--------------x------|
E|---------------3------|
  

Chorus:
e|0-------------------0------------------------0------------------0----------|
B|3-------------------3-----------3------------3------------------3----------|
G|2-------------------2-----------2------------2------------------2----------|
D|0-------------------x-----------0------------0------------------x----------|
A|--------------------4-----------x-------------------------------4----------|
E|--------------------------------3------------------------------------------|
      

Chorus Cont'd:
e|-----------0------------------0----------------------0---------0-----------|
B|---3-------3------------------3-----------3----------3---------0---------3-|
G|---2-------2------------------2-----------2----------2---------2---------2-|
D|---0-------0------------------x-----------0----------0---------2---------0-|
A|---x--------------------------4-----------x--------------------0---------x-|
E|---3--------------------------------------3------------------------------3-|


Chorus Cont'd:
e|--------------|
B|--------------|
G|--------------|
D|--------------|
A|--------------|
E|--------------|
  I still believe.

Repeat Intro:  (2x)

Repeat Verse

Repeat Pre Chorus

Repeat Chorus

Break:
e|----------------------------------|
B|----------------------------------|
G|-----4-----2-2-------2-2-2-2-2-2--|
D|-----------------5-5-2-2-2-2-2-2--|
A|-0h2---2-0-----------0-0-0-0-0-0--|
E|---------------3------------------|

Bridge:
e|---------------------------------------------------------------------------|
B|---------------------------------------------------------------------------|
G|---------4----------2----------------------2------------4------------2-----|
D|---------4----------2-----------5----------2------------4------------2-----|
A|---------2----------0-----------5----------0------------2------------0-----|
E|--------------------------------3------------------------------------------|
  

Bridge Cont'd:
e|---------------------------------------------------------------------------|
B|---------------------------------------------------------------------------|
G|---------------2------------4----------2---------------------------2-------|
D|---------5-----2------------4----------2--------------5------------2-------|
A|---------5-----0------------2----------0--------------5------------0-------|
E|---------3--------------------------------------------3--------------------|
  

Bridge Cont'd:
e|---------------------------------------------------------------------------|
B|----3---------------3------------------------------------------------------|
G|----2---------------2------------2-----------------------------------------|
D|----0---------------0------------2-----------------------------------------|
A|----x---------------x------------0-----------------------------------------|
E|----3---------------2------------------------------------------------------|


Repeat Chorus:  (No guitar)

Repeat Chorus until end

End On:
e|---5~---|
B|---3~---|
G|---2~---|
D|---0~---|
A|--------|
E|--------|

GUITAR 2'S PARTS:
-----------------
Intro:  (Same as guitar 1)

Verse:  (Same as guitar 1)

Pre Chorus:  (2x)
e|--------6------------6---------6-------------------------------------------|
B|-----6~---6-------6~---6---6h8---6~----6~--6-6-----------------------------|
G|-6h7--------7-6h7--------7-------------------------------------------------|
D|---------------------------------------------------------------------------|
A|---------------------------------------------------------------------------|
E|---------------------------------------------------------------------------|

Chorus:
e|5-------------------5-----------5------------5------------------5----------|
B|5-------------------5-----------5------------5------------------5----------|
G|7-------------------6-----------7------------7------------------6----------|
D|7-------------------7-----------5------------7------------------7----------|
A|---------------------------------------------------------------------------|
E|---------------------------------------------------------------------------|
   

Chorus Cont'd:
e|---5-------5------------------5-----------5----------0---------0-----------|
B|---5-------5------------------5-----------5----------3---------0---------3-|
G|---7-------7------------------6-----------7----------2---------2---------2-|
D|---5-------7------------------7-----------5----------0---------2---------0-|
A|---------------------------------------------------------------0---------x-|
E|-------------------------------------------------------------------------3-|
 

Chorus Cont'd:
e|--------------|
B|--------------|
G|--------------|
D|--------------|
A|--------------|
E|--------------|
  I still believe.

Repeat Intro:  (2x)

Repeat Verse

Repeat Pre Chorus

Repeat Chorus

Break:  (Same as guitar 1)

Bridge:  (Same as guitar 1)

Repeat Chorus:  (No guitar)

Repeat Chorus until end

Ending:
e|---------------------------------------------------------------------------|
B|-----5~-------5~-------5~-------5~-------5~---7~-------5~------------------|
G|-7-7------7--------7--------7--------7-------------7~----------------------|
D|------------7--------7--------7--------7-----------------------------------|
A|---------------------------------------------------------------------------|
E|---------------------------------------------------------------------------|

Comments about this tab

jgarcia - 2004-08-04

Well, I'm not sure if you did this on purpose...but the actual words are..."Scattered words," as opposed to "Scattered birds"
Just a friendly correction.


peddiwr - 2004-08-22

thats funny. you put in "scattered birds" instead of "scattered words". its okay. not that big a deal.:)


gcat1486 - 2004-08-24

can birds scatter?
Great tab


c.guitrplayr101 - 2004-09-13

enough with the bird thing!!!(scattered WORDS and empty thoughts;)
are the tabs in relation to capo? i'll assume yes, thats the way most do it.
great tab.thanks.


IncuThrice07 - 2004-12-16

LOL, yeah I'm a little bit slow. Sorry about the wrong words. I don't know how I didn't notice that one. LOL


Kutless Fan - 2005-03-01

...and the birds scatter...


GOD's_musician4 - 2005-08-22

i think the writer gets what u people are tryin to say :P, great tab...thanks`


musicman1601 - 2005-08-24

Scattered birds whatever. Anyways great tab almost perfect only a few things that need to be added. The pre-chorus is picked not strummed it goes like:
E-------------------------------------------------------------
B---3----3----3----3----3----3----3----3----3----3----3----3--
G--2-2--2-2--2-2--2-2--2-2--2-2--2-2--2-2--2-2--2-2--2-2--2-2-
D-------------------------------------------------------------
A-2----2----0----0------------------------2----2----0----0----
E---------------------3----3----3----3------------------------

E----------------------0
B---3----3----3----3---3
G--2-2--2-2--2-2--2-2--2
D----------------------0
A----------------------0
E-3----3----3----3-----x

Then you just go into the chorus from there, hope this helps all of you. I'll be posting another part of this song too.


Guitars4ever9 - 2006-02-12

in the lyrics he says "scattered WORDS"


Grimertop - 2006-03-08

GUYS!!!! please stop OBSESSING over the scattered birds thing! We get it! he messed up! so what? he apologized GET OVER IT! lol, sorry, just had to say it. great tab tho.


IncuThrice07 - 2006-03-26

Thanks for having my back peeps! Haha. I appreciate it! :)


emstercola - 2006-04-18

lol the scattered birds thing just confused me... oh, well it's a wonderfull tab n e wayss


jkim519 - 2006-08-18

lol scattered birds.....


jkim519 - 2006-08-18

Despite the scattered birds part...this tab is well done and yes the pre chorus is picked


wulff - 2007-09-06

For Gods Glory!!! Nice TAB!!!!


Add a comment/correction

Complimentary Christian Ringtones
Dadamobile and CGR have teamed up to bring your favorite Christian artists right to your phone. Sign up today and get 10 complementary ringtones!
Tab Country
Did you know CGR has a sister site w/ country guitar tabs? Well we do! Its called Tab Country. It has a great archive with a lot of country tabs.
Rockin Tabs
Are you looking for a site that has rock guitar tabs? Then Rockintabs.com is the place for you. It is a budding site with many rock guitar tabs. Submit your tab today.
Tab Gallery
Tab Gallery has a compilation of christian, rock, and country tabs all in one place. Come visit us.