Guitar Tabs
song title    band name

Join Us Today!

Don't strum alone...
be a part of the largest online Christian music community. Browse thousands of guitar tabs and chat w/ musicians like yourself.


It's Free!

This tab has been rated a 5.00 out of 5 for accuracy. (8 votes)Sorry, but you must be logged in to rate this tab.
Click here to log-in, or you can click here to register.
(Registration is free)

All songs owned by corresponding publishing company. If you make copies of any song on this website, be sure to report your usage to CCLI.
Submitted by: IncuThrice07

-------------------------------------------------------------------------------
                UNCHANGING - Chris Tomlin
--------------------------------------------------------------------------------

By:  Gary(garyhale@spu.edu)

CAPO 1ST FRET!!!

~   - let ring out
^   - bend
/ \ - slide
v   - vibrato
h   - hammer on


GUITAR 1'S PARTS:  (Right Channel)
----------------------------------
Intro:  (With delay)
e|--3-5---3-5---3-5~---3-5---3-5---3-5~----2-3---2-3---2-3~---2-3---2-3---2-3|
B|3-----3-----3------3-----3-----3-------1-----1-----1------1-----1-----1----|
G|---------------------------------------------------------------------------|
D|---------------------------------------------------------------------------|
A|---------------------------------------------------------------------------|
E|---------------------------------------------------------------------------|

Intro Cont'd:  "Great is Your..." (2x)
e|--3-5---3-5---3-5~----2-3---2-3---2-3~----2-3---2-3---2-3~----3-5---3-5----|
B|3-----3-----3-------3-----3-----3-------1-----1-----1-------1-----1--------|
G|---------------------------------------------------------------------------|
D|---------------------------------------------------------------------------|
A|---------------------------------------------------------------------------|
E|---------------------------------------------------------------------------|

Intro Cont'd:
e|--3-5~----3-5---3-5---3-5~----2-3---2-3---2-3~----3-5---3-5---3-5~----2-3--|
B|1-------3-----3-----3-------1-----1-----1-------3-----3-----3-------3------|
G|---------------------------------------------------------------------------|
D|---------------------------------------------------------------------------|
A|---------------------------------------------------------------------------|
E|---------------------------------------------------------------------------|

Intro Cont'd:
e|--2-3---2-3~---------------------------------------------------------------|
B|3-----3--------------------------------------------------------------------|
G|---------------------------------------------------------------------------|
D|---------------------------------------------------------------------------|
A|---------------------------------------------------------------------------|
E|---------------------------------------------------------------------------|

Chorus:  (2x)
e|---------------------------------------------------------------------------|
B|---------------------------------------------------------------------------|
G|---------------------------------5----------------------5------7-----------|
D|-------2-------------5-----------5-------------2--------5------7-----------|
A|-------2-------------5-----------3-------------2--------3------5-----------|
E|-------0-------------3-------------------------0---------------------------|

e|---------------------------------------------------------------------------|
B|---------------------------------------------------------------------------|
G|---------------------------------------------------------------------------|
D|-5-------------------------------------------------------------------------|
A|-5-------------------------------------------------------------------------|
E|-3-------------------------------------------------------------------------|

2nd Verse:  "Wide is Your love..."  (Repeat throughout entire verse)
e|---------------------------------------------------------------------------|
B|---------------------------------------------------------------------------|
G|11/12-12-12\11-11/12-12-12-12-12-12----------------------------------------|
D|----x--x--x--x--x--x--x--x--x--x--x----------------------------------------|
A|-9/10-10-10\-9--9/10-10-10-10-10-10----------------------------------------|
E|---------------------------------------------------------------------------|

Repeat Chorus

Bridge:  "You were..."  (4x)
e|-----|---------------------------------------------------------------------|
B|-----|----8-7--8------8-7--8------8-7--8------8-7-8--10~-------------------|
G|-----|-9---------9--5--------5--4--------4--7------------------------------|
D|-2~--|---------------------------------------------------------------------|
A|-2~--|---------------------------------------------------------------------|
E|-0~--|---------------------------------------------------------------------|

Repeat Chorus:  (4x, no singing 4th time)

Solo:  (Chorus chords played over the solo)  (Repeat lots of times)
e|----------15--|-(end on)---------------------------------------------------|
B|-13v~--12-----|------------------------------------------------------------|
G|--------------|------------------------------------------------------------|
D|--------------|-----5~-----------------------------------------------------|
A|--------------|-----5~-----------------------------------------------------|
E|--------------|-----3~-----------------------------------------------------|

GUITAR 2'S PARTS:  (Left Channel)
---------------------------------
Intro:
e|-3-3-3-3-----------------3-3-3-3-----------------3-3-3-3-------------------|
B|-3-3-3-3-----------------3-3-3-3-----------------3-3-3-3-------------------|
G|-0-0-0-0-----------------0-0-0-0-----------------0-0-0-0-------------------|
D|-0-0-0-0-4-4-4-4-4-2-2-2-0-0-0-0-4-4-4-4-4-2-2-2-2-2-2-2-4-4-4-4-4-2-2-2---|
A|-2-2-2-2-x-x-x-x-x-x-x-x-2-2-2-2-x-x-x-x-x-x-x-x-3-3-3-3-3-3-3-3-3-3-3-3---|
E|-3-3-3-3-3-3-3-3-3-3-3-3-3-3-3-3-3-3-3-3-3-3-3-3---------------------------|

Intro Cont'd:
e|3-3-3-3--------------------------------------------------------------------|
B|3-3-3-3--------------------------------------------------------------------|
G|0-0-0-0--------------------------------------------------------------------|
D|2-2-2-2-4-4-4-4-4-2-2-2----------------------------------------------------|
A|3-3-3-3-3-3-3-3-3-3-3-3----------------------------------------------------|
E|---------------------------------------------------------------------------|

Verse:  "Great is Your..."  (2x)
e|-3-3-3-3-----------------3-3-3-3-----------------3-3-3-3-------------------|
B|-3-3-3-3-----------------3-3-3-3-----------------3-3-3-3-------------------|
G|-0-0-0-0-----------------0-0-0-0-----------------0-0-0-0-------------------|
D|-0-0-0-0-4-4-4-4-4-2-2-2-0-0-0-0-4-4-4-4-4-2-2-2-2-2-2-2-4-4-4-4-4-2-2-2---|
A|-2-2-2-2-x-x-x-x-x-x-x-x-2-2-2-2-x-x-x-x-x-x-x-x-3-3-3-3-3-3-3-3-3-3-3-3---|
E|-3-3-3-3-3-3-3-3-3-3-3-3-3-3-3-3-3-3-3-3-3-3-3-3---------------------------|

Verse Cont'd:
e|3-3-3-3--------------------------------------------------------------------|
B|3-3-3-3--------------------------------------------------------------------|
G|0-0-0-0--------------------------------------------------------------------|
D|2-2-2-2-4-4-4-4-4-2-2-2-4-4-4-4-4-4-4-4-4-4-4-4-2-2-2-2-2-2-2-2-2-2-2-2----|
A|3-3-3-3-3-3-3-3-3-3-3-3-5-5-5-5-5-5-5-5-5-5-5-5-3-3-3-3-3-3-3-3-3-3-3-3----|
E|---------------------------------------------------------------------------|

Chorus:  "So we raise..."  (Entire Chorus 2x)
e|10---8-7---7----7---10---10--|-7---7---7-----10----10---10---8-7----7------|
B|---8-----8----8---8----8-----|---8---8---8-8-----8----8----8------8--------|
G|-----------------------------|---------------------------------------------|
D|---------(2x)----------------|---------------------------------------------|
A|-----------------------------|---------------------------------------------|
E|-----------------------------|---------------------------------------------|

Chorus Cont'd:                  (2nd time around ends with this)
e|--7h8-8-8-7----7-10----10----|----10\--------------------------------------|
B|8------------8-------8----8--|---------------------------------------------|
G|-----------------------------|---------------------------------------------|
D|-----------------------------|---------------------------------------------|
A|-----------------------------|---------------------------------------------|
E|-----------------------------|---------------------------------------------|

Repeat Verse

Repeat Chorus

Bridge:  "You are..."  (4x, 3rd and 4th do some picking of single notes)
e|-3~----3~----3~----5~------------------------------------------------------|
B|-3~----3~----3~----3~------------------------------------------------------|
G|-0~----0~----0~----2~------------------------------------------------------|
D|-2~----2~----0~----0~------------------------------------------------------|
A|-2~----3~----2~------------------------------------------------------------|
E|-0~------------------------------------------------------------------------|

Repeat Chorus:  (3x)

Solo:
e|------15~------------------15~------------------15-------------------------|
B|---13-----13-12---------13-----13-12---------13----13-12------------11^----|
G|12--------------14v--12--------------14v--12-------------14v--12-14-----12~|
D|---------------------------------------------------------------------------|
A|---------------------------------------------------------------------------|
E|---------------------------------------------------------------------------|

Solo Cont'd:
e|------15~------------------15~------------------15-------------------------|
B|---13-----13-12---------13-----13-12---------13----13-12------------11^\---|
G|12--------------14v--12--------------14v--12-------------14v--12-14--------|
D|---------------------------------------------------------------------------|
A|---------------------------------------------------------------------------|
E|---------------------------------------------------------------------------|

Solo Cont'd:  (Play Chorus Once)

Solo 2:
e|------15~------------------15~------------------15-------------------------|
B|---13-----13-12---------13-----13-12---------13----13-12------------11^\---|
G|12--------------14v--12--------------14v--12-------------14v--12-14--------|
D|---------------------------------------------------------------------------|
A|---------------------------------------------------------------------------|
E|---------------------------------------------------------------------------|

Solo 2 Cont'd:
e|------15~------------------------------------------------------------------|
B|---13-----13-12------------13~--12-13-12~----------------------------------|
G|12--------------14v--12-14-------------------------------------------------|
D|---------------------------------------------------------------------------|
A|---------------------------------------------------------------------------|
E|---------------------------------------------------------------------------|

Sorry if I forgot a few parts here and there...but there's 3 guitars on this
track so it was kinda hard.  If you have any requests, e-mail me and I'll try
and take care of them.
===============================================================================

Comments about this tab

John4JC - 2005-04-21

WOW this is more than enough!! great job man


benelliman - 2006-04-20

Is there anyway you guys can post BASS TABS??
I play the bass and it would mean a lot to me to be able to play along
I have taught myself bass and do not know much of how to read notes or chords.. I just know how to read tabs. can u please help?


CRAIG HALL - 2007-01-13

Any help on the intro for the acoustic? DCH


noahswitzer - 2007-10-10

Acoustic Intro is G G/F# a few times then C G/F#.
I like to play G2/F# myself which is top to bottom 200233


Add a comment/correction

Complimentary Christian Ringtones
Dadamobile and CGR have teamed up to bring your favorite Christian artists right to your phone. Sign up today and get 10 complementary ringtones!
Tab Country
Did you know CGR has a sister site w/ country guitar tabs? Well we do! Its called Tab Country. It has a great archive with a lot of country tabs.
Rockin Tabs
Are you looking for a site that has rock guitar tabs? Then Rockintabs.com is the place for you. It is a budding site with many rock guitar tabs. Submit your tab today.
Tab Gallery
Tab Gallery has a compilation of christian, rock, and country tabs all in one place. Come visit us.