Guitar Tabs
song title    band name

Join Us Today!

Don't strum alone...
be a part of the largest online Christian music community. Browse thousands of guitar tabs and chat w/ musicians like yourself.


It's Free!

This tab has been rated a 5.00 out of 5 for accuracy. (4 votes)Sorry, but you must be logged in to rate this tab.
Click here to log-in, or you can click here to register.
(Registration is free)

All songs owned by corresponding publishing company. If you make copies of any song on this website, be sure to report your usage to CCLI.
Submitted by: IncuThrice07

-------------------------------------------------------------------------------
                   HERE I GO AGAIN - Casting Crowns
--------------------------------------------------------------------------------

By:  Gary(garyhale@spu.edu)

CAPO 1ST FRET!!!

h   - hammer on
~   - let ring out
/ \ - slide


GUITAR 1'S PARTS:
-----------------
Chords Used:
   F#m Asus2  E  Dsus2  A5  E5  F#5 D5
e|--2----0----0----0------------------------|
B|--2----0----0----3------------------------|
G|--2----2----1----2-----------------7------|
D|--4----2----2----0-----7---2---4---7------|
A|--4----0----2----------7---2---4---5------|
E|--2---------0----------5---0---2----------|

Intro:  F#m - Asus2 - E - Dsus2  (2x)

Verse:
F#m            Asus2
               E
               Dsus2
               F#m
               Asus2
               E
F#m     E      Dsus2


Pre Chorus:
Asus2                     E
F#m           E           Dsus2
              Asus2       E
F#m



Chorus:
A5                E5
F#5               E5       D5
A5
E5
F#5               E5       D5
A5                E5       F#5


Repeat Verse: (different lyrics)

Repeat Pre Chorus

Repeat Chorus

Solo:  F#5 - A5 - E5 - D5
       F#5 - A5 - E5 - F#5 - E5 - D5

Repeat Pre Chorus

Repeat Chorus

Repeat Intro:  (2x)  End on E

GUITAR 2'S PARTS:
-----------------
Solo:
e|---------------------------------------------------------------------------|
B|---------------------------------------------------------------------------|
G|-----------------------------------------------7~--------------------------|
D|---2-4~--2/4-2------------------------2~-------7~--------2--4~--2/4-2------|
A|-4-------------4-2-0-2-2/4~---4-2-0-2-2~---2-0-5~--0h2~---------------4-2-0|
E|--------------------------------------0~-------5~--------------------------|

Solo Cont'd:
e|---------------------------------------------------------------------------|
B|---------------------------------------------------------------------------|
G|--------------------------11~-----9~--7~-----------------------------------|
D|-----------------2~---/11-11~--/9-9~--7~-----------------------------------|
A|2-2/4~---4-2-0-2-2~--------------------------------------------------------|
E|-----------------0~--------------------------------------------------------|


===============================================================================

Comments about this tab

matt j t - 2004-12-14

Hey Gary(garyhale@spu.edu), Please try to figure out "Voice of Truth" !!!

your tabs are awesome!!!

I play a couple of songs that You put on here (like "I See Love") and they sound 100% correct!!!

You rule!!!

Jesus First!!!


matt j t - 2004-12-15

Oops!! you already tabbed "Voice of Truth"

SORRY

You still rock!!!


IncuThrice07 - 2004-12-16

Hey, thanks for the compliments man. Check out my site if you'd like: http://www.geocities.com/ggtabs07

Oh, and for Voice of Truth, I accidentally tabbed it a half step down because I forgot to re-tune my guitar after figuring out another song...oops.


matt j t - 2004-12-24

I knew you that!!!!


matt j t - 2004-12-24

That was a typo, sorry!!!!!!!!!!!
What I meant to say was:

I knew you DID that!!!


AudioRKFFHfan - 2005-01-06

you guys seem to be havin fun!


Sponkenfor - 2005-05-01

Hey try it like this.
Hammer = h
on the intro and verse play: Capo on 3rd fret.
Em G G ? G ? C
-------3------3--x--3--x---x
2h(2x)-2h(2x)-x--3--x--3---3
-3-----0------x--x--x--x---2
-0-----0------x--x--x--x---0
-0-----0------x--x--x--x---1
-0-----0------x--x--x--x---0
Chorus:Just play G D Em F#/D C2
G D C2
G D Em D C2 (repeat)
G D C2

This is kinda like the piano and the guitar part. You can hear it if you listion closely. Just listion to the cd and see how this sounds. This is my first time to tab a song so let me know how this sounds. Let me know if i'm in the ballpark or way out in left feild.

Because of Grace,
Dan


Add a comment/correction

Complimentary Christian Ringtones
Dadamobile and CGR have teamed up to bring your favorite Christian artists right to your phone. Sign up today and get 10 complementary ringtones!
Tab Country
Did you know CGR has a sister site w/ country guitar tabs? Well we do! Its called Tab Country. It has a great archive with a lot of country tabs.
Rockin Tabs
Are you looking for a site that has rock guitar tabs? Then Rockintabs.com is the place for you. It is a budding site with many rock guitar tabs. Submit your tab today.
Tab Gallery
Tab Gallery has a compilation of christian, rock, and country tabs all in one place. Come visit us.