Guitar Tabs
song title    band name

Join Us Today!

Don't strum alone...
be a part of the largest online Christian music community. Browse thousands of guitar tabs and chat w/ musicians like yourself.


It's Free!

This tab has been rated a 5.00 out of 5 for accuracy. (2 votes)Sorry, but you must be logged in to rate this tab.
Click here to log-in, or you can click here to register.
(Registration is free)

All songs owned by corresponding publishing company. If you make copies of any song on this website, be sure to report your usage to CCLI.
Submitted by: scheller

Lift
Audio Adrenaline
Album: Lift
C 2001 2001 Up In The Mix/Flicker USA Publishing (BMI) 

Transcribed by scheller  sonnyschell@hotmail.com


All guitars Capo I (chords show actual tonality and do not reflect shape)

 D#m     C#      C#add11  C#(type 2)  F#maj7  Bsus2
 xx0231  x32010  x32011   x32013      xx3210  x13311


 Intro
      C#
  Synth fades in 
|----------|------------|-----------------|
|----------|------------|-----------------|
|-----5----|-(5)--------|--(5)------------|
|----------|------------|-----------------|
|-----3----|-(3)--------|--(3)------------|
|----------|------------|-----------------|
|
| Gtr I                    *sim fdbk (octave higher)
|----------|------------|-[12]------------|
|----------|------------|-----------------|
|----------|------------|-----------------|
|----------|------------|-----------------|
|----------|------------|-----------------|
|----------|------------|-----------------|


  F#maj7        C#                        D#m          F#maj7      C#
|-----0---------------0----------------|-----1---------------0-----------0----|
|--1------------1--1-------------------|------------------------------1-------|
|--------------------------------------|--2------------2--2--------0----------|
|--------------------------------------|--------------------------------------|
|--------------------------------------|--------------------------------------|
|--------------------------------------|--------------------------------------|
|
|----12-----12-------12-------12-------|----12-----12-------12-------12-------|
|-13----13-----13-13----13-15----15-13-|-------13-----13-13----13-15----15-13-|
|--------------------------------------|-14-----------------------------------|
|--------------------------------------|--------------------------------------|
|--------------------------------------|--------------------------------------|
|--------------------------------------|--------------------------------------|


  F#maj7       C#                        D#m          F#maj7      C#
|-----0---------------0----------------|-----1------------------0-----0-||
|--1------------1--1-------------------|----------------------------1---||
|--------------------------------------|--2------------2------2---0-----||
|--------------------------------------|--------------------------------||
|--------------------------------------|--------------------------------||
|--------------------------------------|--------------------------------||
|
|----12-----12-------12-------12-------|----12-----12-------------------||
|-13----13-----13-13----13-15----15-13-|-------15-----13----------------||
|--------------------------------------|-14-----------------------------||
|--------------------------------------|--------------------------------||
|--------------------------------------|--------------------------------||
|--------------------------------------|--------------------------------||


 Verse 1
  D#m     C#           F#maj7
  Gtr III (acoustic)
|-1-1-1-1-0--0-1-3---|-0-0-0-0-0-0-0-0-0-|
|-3-3-3-3-1--1-1-1-1-|-1-1-1-1-1-1-1-1-1-|
|-2-2-2-2-0--0-0-0-0-|-2-2-2-2-2-2-2-2-2-|
|-0-0-0-0-2--2-2-2-2-|-3-3-3-3-3-3-3-3-3-|
|---------3--3-3-3-3-|-------------------|
|--------------------|-------------------|
|
|-0------------------|-------------------|
|-1------------------|-------------------|
|-2------------------|-------------------|
|--------------------|-------------------|
|--------------------|-------------------|
|--------------------|-------------------|


  D#m     C#          F#maj7
|-1-1-1-1-0-0-1-0---|-0-0-0-0-0-0-0-0-0-|
|-3-3-3-3-1-1-1-1-1-|-1-1-1-1-1-1-1-1-1-|
|-2-2-2-2-0-0-0-0-0-|-2-2-2-2-2-2-2-2-2-|
|-0-0-0-0-2-2-2-2-2-|-3-3-3-3-3-3-3-3-3-|
|---------3-3-3-3-3-|-------------------|
|-------------------|-------------------|


  D#m       C#                   F#maj7
|-1-1--1--1-0--0---1----3------|-0-0-0-0-0-0-0-0-0-|
|-3-3--3--3-1--1---1----1----1-|-1-1-1-1-1-1-1-1-1-|
|-2-2--2--2-0--0---0----0----0-|-2-2-2-2-2-2-2-2-2-|
|-0-0--0--0-2--2---2----2----2-|-3-3-3-3-3-3-3-3-3-|
|-----------3--3---3----3----3-|-------------------|
|------------------------------|-------------------|
|
|---1----------0-----1-----3---|-3-----------------|
|-3---------1------------------|---------------1---|
|------------------------------|---2-------2-2-----|
|------------------------------|-------------------|
|------------------------------|-------------------|
|------------------------------|-------------------|
|
|------------------------------|-------------------|
|------------------------------|-------------------|
|------------------------------|-------------------|
|------------------------------|-------------------|
|-8---------7-----\3-----------|-0-----------------|
|------------------------------|-------------------|


  D#m         C#                F#maj7                D#m
|-1---1--1--1-0-0-1----3------|-0-0-0-0-0--0--0-0-0-|-1----------------||
|-3---3--3--3-1-1-1----1----1-|-1-1-1-1-1--1--1-1-1-|-3----------------||
|-2---2--2--2-0-0-0----0----0-|-2-2-2-2-2--2--2-2-2-|-2----------------||
|-0---0--0--0-2-2-2----2----2-|-3-3-3-3-3--3--3-3-3-|-0----------------||
|-------------3-3-3----3----3-|---------------------|------------------||
|-----------------------------|---------------------|------------------||
|
|-----1---------0---1-----3---|-3-------------------|---1------1-0-----||
|-3-----------1---------------|-----------------1---|-3------------3-1-||
|-----------------------------|---2---0-2-----------|------------------||
|-----------------------------|---------------------|------------------||
|-----------------------------|---------------------|------------------||
|-----------------------------|---------------------|------------------||
|
| Gtr IV
|-----------------------------|---------------------|------------------||
|-----------------------------|---------------------|------------------||
|-----------------------------|---------------------|------------------||
|-----------------------------|---------------------|-0----------------||
|-3/5---------3---------------|-0-------------------|------------------||
|-----------------------------|---------------------|------------------||


 Chorus
  F#maj7          C#                  D#m             F#maj7      C#
|---0---------------------0---------|---1---------------------0-------0-|
|-1---------------------1-----------|-----------------------1-------1---|
|-----------------0-----------------|-2---------------2-----------0-----|
|-----------------------------------|-----------------------------------|
|-----------------------------------|-----------------------------------|
|-----------------------------------|-----------------------------------|
|
|-----------------------------------|-----------------------------------|
|-----------------------------------|-----------------------------------|
|-5-5-5--5--5-5-5-5-5-5---5-5-5-7-9-|-5-5-5--5--5-5-5-5-5-5---5-5-5-7-9-|
|-----------------------------------|-----------------------------------|
|-3-3-3--3--3-3-3-3-3-3---3-3-3-5-7-|-3-3-3--3--3-3-3-3-3-3---3-3-3-5-7-|
|-----------------------------------|-----------------------------------|


  F#maj7          C#
|---0---------------------0---------|
|-1---------------------1-----------|
|-----------------0-----------------|
|-----------------------------------|
|-----------------------------------|
|-----------------------------------|
|
|-----------------------------------|
|-----------------------------------|
|-5-5-5--5--5-5-5-5-5-5---5-5-5-7-9-|
|-----------------------------------|
|-3-3-3--3--3-3-3-3-3-3---3-3-3-5-7-|
|-----------------------------------|


  D#m                             Bsus2
|---1---------------------------------|---------||
|-----------------------------------1-|-(1)-----||
|-2---------------------------------3-|-(3)-----||
|-----------------------------------3-|-(3)-----||
|---------------------------------1---|---------||
|-------------------------------------|---------||
|
|-------------------------------------|---------||
|-------------------------------------|---------||
|-5-5-5-5-5-5--5--5-5-5-5-5-5-5-5-3-3-|-(3)-----||
|-------------------------------------|---------||
|-3-3-3-3-3-3--3--3-3-3-3-3-3-3-3-1-1-|-(1)-----||
|-------------------------------------|---------||


 Interlude
  F#maj7             C#
|-----0-------------------------0----------------------|
|--1-------------------------1-------------------------|
|---------------------0--------------------------------|
|------------------------------------------------------|
|------------------------------------------------------|
|------------------------------------------------------|
|
|----12---------12-------------12-----------12---------|
|-13------13---------13-----13----13---15------15-13---|
|------------------------------------------------------|
|------------------------------------------------------|
|------------------------------------------------------|
|------------------------------------------------------|
|
|------------------------------------------------------|
|------------------------------------------------------|
|--5--5-5--5--5--5-5--5-5-5-----5----5--5-5--5--5--5-5-|
|------------------------------------------------------|
|--3--3-3--3--3--3-3--3-3-3-----3----3--3-3--3--3--3-3-|
|------------------------------------------------------|


  D#m                F#maj7            C#
|-----1-------------------------0---------------0-------||
|----------------------------1---------------1----------||
|--2------------------2-----------------0---------------||
|-------------------------------------------------------||
|-------------------------------------------------------||
|-------------------------------------------------------||
|
|----12---------12-------------12-----------12----------||
|---------13---------13-----13----13---15------15-13----||
|-14----------------------------------------------------||
|-------------------------------------------------------||
|-------------------------------------------------------||
|-------------------------------------------------------||
|
|-------------------------------------------------------||
|-------------------------------------------------------||
|--5--5-5--5--5--5-5--5-5-5-----5----5--5-5--5--5--5-5--||
|-------------------------------------------------------||
|--3--3-3--3--3--3-3--3-3-3-----3----3--3-3--3--3--3-3--||
|-------------------------------------------------------||


   Verse 2
    D#m        C#                 F#maj7             3x
||---1-1--1--1-0-0-1---3--------|-0-0-0-0-0-0-0-0-0--||
||o--3-3--3--3-1-1-1---1----1---|-1-1-1-1-1-1-1-1-1-o||
||---2-2--2--2-0-0-0---0----0---|-2-2-2-2-2-2-2-2-2--||
||---0-0--0--0-2-2-2---2----2---|-3-3-3-3-3-3-3-3-3--||
||o------------3-3-3---3----3---|-------------------o||
||------------------------------|--------------------||
|
|                                                    3x
||-----1---------0---1---3------|-3------------------||
||o--3---------1----------------|---------------1---o||
||------------------------------|---2-------2-2------||
||------------------------------|--------------------||
||o-----------------------------|-------------------o||
||------------------------------|--------------------||
|
|                                                    3x
||------------------------------|--------------------||
||o-----------------------------|-------------------o||
||--10---------9-----------(9)\-|-5------------------||
||------------------------------|--------------------||
||o-----------------------------|-------------------o||
||------------------------------|--------------------||


  D#m      C#                 F#maj7
|--1-1-1-1-0-0-1---3--------|-0-0-0--0--0---0-0-0-0-|
|--3-3-3-3-1-1-1---1----1---|-1-1-1--1--1---1-1-1-1-|
|--2-2-2-2-0-0-0---0----0---|-2-2-2--2--2---2-2-2-2-|
|--0-0-0-0-2-2-2---2----2---|-3-3-3--3--3---3-3-3-3-|
|----------3-3-3---3----3---|-----------------------|
|---------------------------|-----------------------|
|
|----5-------0---1---0------|-3---------3-----------|
|--3------------------------|-------------1-----1---|
|---------------------------|---2-----------2-------|
|---------------------------|-----------------------|
|---------------------------|-----------------------|
|---------------------------|-----------------------|
|
|---------------------------|-----------------------|
|---------------------------|-----------------------|
|-10-------9-----------(9)\-|-5---------------------|
|---------------------------|-----------------------|
|---------------------------|-----------------------|
|---------------------------|-----------------------|


  D#m
|-1----------------|-----------------------------------|
|-3----------------|-----------------------------------|
|-2----------------|-----------------------------------|
|-0----------------|-----------------------------------|
|------------------|-----------------------------------|
|------------------|-----------------------------------|
|
|---1--------------|-------1------0--------------------|
|---------3--------|---------------------3------1------|
|-2----------------|-----------------------------------|
|------------------|--0--------------------------------|
|------------------|-----------------------------------|
|------------------|-----------------------------------|
|
|                            *this is an echo
|------------------|-----------------------------------|
|------------------|-----------------------------------|
|-7----------------|--7------(7)\---(7)\---(7)\---(7)\-|
|------------------|-----------------------------------|
|------------------|-----------------------------------|
|------------------|-----------------------------------|


 Go back and play Chorus again, then...


 Bridge
  &
|-----------|-------0----|-----------|-------0----|
|------0----|-1----------|------0----|-1----------|
|-2---------|-----2------|-2---------|-----2------|
|-----------|------------|-----------|------------|
|-----------|------------|-----------|------------|
|-----------|------------|-----------|------------|


|-------0-----|-1-----0----|-------0-----|-1-----0----||
|-------------|------------|-------------|------------||
|-2---2-----2-|-----2------|-2---2-----2-|-----2------||
|-------------|------------|-------------|------------||
|-------------|------------|-------------|------------||
|-------------|------------|-------------|------------||


   Out-Chorus
    F#maj7                    C#
||--------0---------------------------0-----------|
||o--1------------------------------1-------------|
||-----------------------------0------------------|
||------------------------------------------------|
||o-----------------------------------------------|
||------------------------------------------------|
|
|   Gtr II
||------------------------------------------------|
||o-----------------------------------------------|
||--17---17---17-17--17-17-17-17\---5-5-7-7-9-9-9-|
||------------------------------------------------|
||o-15---15---15-15--15-15-15-15\---3-3-5-5-7-7-7-|
||------------------------------------------------|
|
|   Gtr V
||------------------------------------------------|
||o-----------------------------------------------|
||---5-5--5-5-----5------5--5--5--5-5-5-5-5-5-5-5-|
||------------------------------------------------|
||o--3-3--3-3-----3------3--3--3--3-3-3-3-3-3-3-3-|
||------------------------------------------------|


  D#m                       F#maj7      C#
|-------1---------------------------0-------0----|
|---------------------------------1-------1------|
|--2-------------------------2----------0--------|
|------------------------------------------------|
|------------------------------------------------|
|------------------------------------------------|
|
|------------------------------------------------|
|------------------------------------------------|
|-17---17---17-17--17-17-17-17\---5-5-7-7-9-9-9--|
|------------------------------------------------|
|-15---15---15-15--15-15-15-15\---3-3-5-5-7-7-7--|
|------------------------------------------------|
|
|------------------------------------------------|
|------------------------------------------------|
|--5-5--5-5-----5------5--5--5--5-5-5-5-5-5-5-5--|
|------------------------------------------------|
|--3-3--3-3-----3------3--3--3--3-3-3-3-3-3-3-3--|
|------------------------------------------------|


  F#maj7                    C#
|-------0---------------------------0-----------|
|--1------------------------------1-------------|
|----------------------------0------------------|
|-----------------------------------------------|
|-----------------------------------------------|
|-----------------------------------------------|
|
|-----------------------------------------------|
|-----------------------------------------------|
|-17---17---17-17--17-17-17-17\---5-5-7-7-9-9-9-|
|-----------------------------------------------|
|-15---15---15-15--15-15-15-15\---3-3-5-5-7-7-7-|
|-----------------------------------------------|
|
|-----------------------------------------------|
|-----------------------------------------------|
|--5-5--5-5-----5------5--5--5--5-5-5-5-5-5-5-5-|
|-----------------------------------------------|
|--3-3--3-3-----3------3--3--3--3-3-3-3-3-3-3-3-|
|-----------------------------------------------|


  D#m                   F#maj7         C#
|--------1------------------------0-----------0-----||
|------------------------------1-----------1-------o||
|--2---------------------2--------------0-----------||
|---------------------------------------------------||
|--------------------------------------------------o||
|---------------------------------------------------||
|
|---------------------------------------------------||
|--------------------------------------------------o||
|-17-17-17-17-17--17-17-17-17-17-17-17-17-17-17-17--||
|---------------------------------------------------||
|-15-15-15-15-15--15-15-15-15-15-15-15-15-15-15-15-o||
|---------------------------------------------------||
|
|---------------------------------------------------||
|--------------------------------------------------o||
|--5--5--5--5--5---5--5--5--5--5--5--5--5--5--5--5--||
|---------------------------------------------------||
|--3--3--3--3--3---3--3--3--3--3--3--3--3--3--3--3-o||
|---------------------------------------------------||


  F#maj7                C#
|--------0------------------------0----------------|
|--1---------------------------1-------------------|
|------------------------0-------------------------|
|--------------------------------------------------|
|--------------------------------------------------|
|--------------------------------------------------|
|
|--------------------------------------------------|
|--------------------------------------------------|
|-17-17-17-17-17--17-17-17-17-17-17-17-17-17-17-17-|
|--------------------------------------------------|
|-15-15-15-15-15--15-15-15-15-15-15-15-15-15-15-15-|
|--------------------------------------------------|
|
|--------------------------------------------------|
|--------------------------------------------------|
|--5--5--5--5--5---5--5--5--5--5--5--5--5--5--5--5-|
|--------------------------------------------------|
|--3--3--3--3--3---3--2--3--3--3--3--3--3--3--3--3-|
|--------------------------------------------------|


  D#m                   F#maj7         C#
|--------1------------------------0-----------0----|
|------------------------------1-----------1-------|
|--2---------------------2--------------0----------|
|--------------------------------------------------|
|--------------------------------------------------|
|--------------------------------------------------|
|
|--------------------------------------------------|
|--------------------------------------------------|
|-17-17-17-17-17--17-17-17-17-17-17-17-17-17-17-17-|
|--------------------------------------------------|
|-15-15-15-15-15--15-15-15-15-15-15-15-15-15-15-15-|
|--------------------------------------------------|
|
|--------------------------------------------------|
|--------------------------------------------------|
|--5--5--5--5--5---5--5--5--5--5--5--5--5--5--9--9-|
|--------------------------------------------------|
|--3--3--2--3--3---3--2--3--3--3--3--3--3--3--7--7-|
|--------------------------------------------------|


  F#maj7                C#
|--------0------------------------0----------------|
|--1---------------------------1-------------------|
|------------------------0-------------------------|
|--------------------------------------------------|
|--------------------------------------------------|
|--------------------------------------------------|
|
|--------------------------------------------------|
|--------------------------------------------------|
|-17-17-17-17-17--17-17-17-17-17-17-17-17-17-17-17-|
|--------------------------------------------------|
|-15-15-15-15-15--15-15-15-15-15-15-15-15-15-15-15-|
|--------------------------------------------------|
|
|--------------------------------------------------|
|--------------------------------------------------|
|--5--5--5--5--5---5--5--5--5--5--5--5--5--5--5--5-|
|--------------------------------------------------|
|--3--3--2--3--3---3--2--3--3--3--3--3--3--3--3--3-|
|--------------------------------------------------|

                       
  D#m                          C#
|--------1-------------------|-----3--------------|----------------*|
|----------------------------|----5---------------|----------------*|
|--2-------------------------|---5----------------|----------------*|
|----------------------------|--5-----------------|----------------*|
|----------------------------|-3------------------|----------------*|
|----------------------------|--------------------|----------------*|
|
|                                                   *sim fdbk
|----------------------------|--------------------|-12-------------*|
|----------------------------|--------------------|----------------*|
|-17-17-17-17-17--17-17-17---|--------------------|----------------*|
|----------------------------|--------------------|----------------*|
|-15-15-15-15-15--15-15-15---|--------------------|----------------*|
|----------------------------|--------------------|----------------*|
|
|----------------------------|--------------------|----------------*|
|----------------------------|--------------------|----------------*|
|--5--5--5--5--5---5--5--5---|--------------------|----------------*|
|----------------------------|--------------------|----------------*|
|--3--3--3--3--3---3--3--3---|--------------------|----------------*|
|----------------------------|--------------------|----------------*|


Misc Legend
-----------
||o - repeat start
o|| - repeat end

Generated using Power Tab Editor by Brad Larsen
http://www.power-tab.net

Comments about this tab

No comments/corrections found. Add your own

Complimentary Christian Ringtones
Dadamobile and CGR have teamed up to bring your favorite Christian artists right to your phone. Sign up today and get 10 complementary ringtones!
Tab Country
Did you know CGR has a sister site w/ country guitar tabs? Well we do! Its called Tab Country. It has a great archive with a lot of country tabs.
Rockin Tabs
Are you looking for a site that has rock guitar tabs? Then Rockintabs.com is the place for you. It is a budding site with many rock guitar tabs. Submit your tab today.
Tab Gallery
Tab Gallery has a compilation of christian, rock, and country tabs all in one place. Come visit us.