Guitar Tabs
song title    band name

Join Us Today!

Don't strum alone...
be a part of the largest online Christian music community. Browse thousands of guitar tabs and chat w/ musicians like yourself.


It's Free!

This tab has been rated a 5.00 out of 5 for accuracy. (5 votes)Sorry, but you must be logged in to rate this tab.
Click here to log-in, or you can click here to register.
(Registration is free)

All songs owned by corresponding publishing company. If you make copies of any song on this website, be sure to report your usage to CCLI.
Submitted by: Adam K

Skillet-Imperfection (solo)
 2003 Ardent Records.
b=bend
rb=return bend
s=slide
E[-----------12/10-10-----------------------------------------------------]
B[-10--12b-------12-12/10-10--------8-12brb/10-10-------------------------]
G[-----------------------12--12/9/7/9----------12-12/9/7/9-9s7/7/9--------]
D[-----------------------------------------------------------------9/10/9-]

E[-------12--12/10-10------------------]
B[--12brb---------12-12/10-10----------]
G[-9----------------------12--12/9-----]
D[-------------------------------------]

Tabbed by Adam K

Comments about this tab

OneManMoshPit - 2005-04-21

yo is this the solo at the end or is it the one in the middle, cause at the end of the song i can faintly hear a solo, and this sounds like it might be that one and not the first one


guitarguy38 - 2006-01-30

I'm pretty sure that instead of "rb" for return bend, its supposed to be "r" for release.


Zions_Child16 - 2006-05-26

one of their best songs on that album...
Great job!!!
keep on rockin' for Jesus


Add a comment/correction

Complimentary Christian Ringtones
Dadamobile and CGR have teamed up to bring your favorite Christian artists right to your phone. Sign up today and get 10 complementary ringtones!
Tab Country
Did you know CGR has a sister site w/ country guitar tabs? Well we do! Its called Tab Country. It has a great archive with a lot of country tabs.
Rockin Tabs
Are you looking for a site that has rock guitar tabs? Then Rockintabs.com is the place for you. It is a budding site with many rock guitar tabs. Submit your tab today.
Tab Gallery
Tab Gallery has a compilation of christian, rock, and country tabs all in one place. Come visit us.