Guitar Tabs
song title    band name

Join Us Today!

Don't strum alone...
be a part of the largest online Christian music community. Browse thousands of guitar tabs and chat w/ musicians like yourself.


It's Free!

This tab has been rated a 4.57 out of 5 for accuracy. (23 votes)Sorry, but you must be logged in to rate this tab.
Click here to log-in, or you can click here to register.
(Registration is free)

All songs owned by corresponding publishing company. If you make copies of any song on this website, be sure to report your usage to CCLI.
Submitted by: sanctusfan14

Thousand Foot Krutch
Bounce

this song is sweet
its in drop D tuning

intro
                             p.m                        u play the 9-9 more 
e-x                                                                9-9 than
b-x                                                                9-9 twice
g-x               
d-2--2/5-4--4/5-0--2--2/5-4------4/5-4/5--2-2/5--4/5-0--7-7-7-7-7-7-7-7-7/9-9-5
a-2--2/5-4--4/5-0--2--2/5-4------4/5-4/5--2-2/5--4/5-0--7-7-7-7-7-7-7-7-7/9-9-5
d-2--2/5-4--4/5-0--2--2/5-4--4-4-4/5-4/5--2-2/5--4/5-0--7-7-7-7-7-7-7-7-7/9-9-5

ok then guitar two comes in and they play the same thing except on the part
where they palm mute play it the same except play the 4 on the d a and d
strings

verse, only bass at first
  p.m...................................................................
e----------------0-0----------------------------------------------------
b-0-8-8-8-8--8-8------8-8-8--8-8---0-7-7-7-7--7-7-7-7--7-7-7-7--7-7-7--0
g-0-9-9-9-9--9-9------8-9-9--9-9-9-0-7-7-7-7--7-7-7-7--7-7-7-7--7-7-7---
d-x
a-x
d-x

verse cont.
  p.m........................................................
e---------------0-0--0--0--0--0---0--0--0----------------------------------
b-8-8-8--8--8-8-8-8--8-10-10-10--10-10-10-0--7-7-7-7--7-7-7-7--7--7--------
g-9-9-9--9--9-9-9-9--9--9--9--9--9--9--9-----7-7-7-7--7-7-7-7--7--7--------
d--------------------------------------------------------------5\---0--2--4
a--------------------------------------------------------------5\---0--2--4
d--------------------------------------------------------------5\---0--2--4

chorus

same as intro

then the verse again

bridge gtr1

e------------------------------------------------------------------
b--------0-0-0-0-0-0-0-0-0-0-0-0-0-0-0-0-0-0-0-0-0-0-0-0-------0-5-
g-4------5-4-5-4-5-4-5-4-4-4-4-4-2-2-2-2-2-2-2-2-2-2-4-4-2-----5-5-
d-x(x16)-------------------------------------------------2(x9)---3-
a-2------------------------------------------------------0---------
d------------------------------------------------------------------

bridge gtr 2
         pm.    pm.....     pm..
e-x
b-x
g-x
d-2------4-4-4--5-4---5-4---4--5--4-4/5--5------7----10--10
a-2(x11)-4-4-4--5-4---5-4---4--5--4-4/5--5(x15)-7(x9-----10
d-2------4-4-4--5-4---5-4---4--5--4-4/5--5------7--------10

breakdown(2 gtr parts here)

e-----0--0-------0-0-----0---0---0-0-0-0-0-0-0-0-0-0-0-0-0-0-0-0-
b----------------0------------.--5-5-5-5-5-5-5-5-4-4-4-4-4-4-4-4-
g-4-4------4h5-5-------2---2-------------------------------------
d-----2--2-------2-2-----2---2---2-----2-0-3-----2-----2-0-3-----
a-2-2------2h3-3-------0---0--.--2-----2-0-3-----2-----2-0-3-----
d--------------------------------2-----2-0-3-----2-----2-0-3-----

breakdown cont.

e-0-0-0-0-0-0-0-0-0-0-0-0-0-0-0-0--0-0-0-0-0-0-0-0-0-0-0-0-0-0-0-0
b-3-3-3-3-3-3-3-3-1-1-1-1-1-1-1-1--5-5-5-5-5-5-5-5-4-4-4-4-4-4-4-4
g-----------------------------------------------------------------
d-2-----2-0-3-----2-----2-0-3------2---------------2--------------
a-2-----2-0-3-----2-----2-0-3------2---------------2--------------
d-2-----2-0-3-----2-----2-0-3------2---------------2--------------

breakdown cont.

e-0-0-0-0-0-0-0-0-0
b-3-3-3-3-3-3-3-3-1
g------------------
d-2---------------2
a-2---------------2
d-2---------------2

then play the chorus again, and ur done.
God Bless...Josh B

Comments about this tab

gsusfreke - 2004-07-20

Nice job man!! That's like perfect. id give it a 10!


mraxeman - 2004-08-09

Hey man you did a AWESOME JOB everyone should get this song!!


JcFrk27 - 2004-12-22

great job- very well done


TFKfandude - 2004-12-22

NICE!!!!!!!!!! That's great!!!! I'm a beginner and you really helped me
figure this song out easily!!! Thanks!


Emery37 - 2005-01-06

dude that sounds exactly how its supposed to!!!!!!!!!!!!!!!!!!!!!!!!!!
You rock hard man!!!!


TFKfandude - 2005-01-21

Hey i would really appreciate it if some one tabed "Everyone Like Me". It's a rockin song, and i just can't figure it out. Thanks.


110%panhead - 2005-07-27

excellent tab, uh...excellenter song..


technometal - 2005-08-18

Nice tab but in the intro guitar one only plays until the 4/5 4/5 part, then the entire intro riff you put down is played. Also, the 9 is played five times.


ice_wiz - 2005-08-23

wheres the solo part is the solo


ice_wiz - 2005-08-23

*Sorry, i meant what part is the solo?


sanctusfan14 - 2006-02-18

There really isn't a solo in this song, but I would guess its in the bridge somewhere.


ice_wiz - 2006-03-30

n/m I see it now.


LochnessCamel03 - 2006-04-07

awesome job!!!!!!!! i've got it all down now!! keep on rawking!!!


Dani_Boy - 2006-04-12

You've missed out a 4 fretted chord in the intro. It's right before all the 7 fretted chords. Also, if you want to be correct with the timing it's a little off. The "Breakdown" parts are a little bit hard to read. (What does those dots mean on the A and the B string?) I haven't checked everything yet, but apart from these things it looks pretty good.


young_rocker_06 - 2006-05-21

dude, i just started playing not too long ago and i can play this perfectly! Thanx!

-Chris-


Add a comment/correction

Complimentary Christian Ringtones
Dadamobile and CGR have teamed up to bring your favorite Christian artists right to your phone. Sign up today and get 10 complementary ringtones!
Tab Country
Did you know CGR has a sister site w/ country guitar tabs? Well we do! Its called Tab Country. It has a great archive with a lot of country tabs.
Rockin Tabs
Are you looking for a site that has rock guitar tabs? Then Rockintabs.com is the place for you. It is a budding site with many rock guitar tabs. Submit your tab today.
Tab Gallery
Tab Gallery has a compilation of christian, rock, and country tabs all in one place. Come visit us.