Guitar Tabs
song title    band name

Join Us Today!

Don't strum alone...
be a part of the largest online Christian music community. Browse thousands of guitar tabs and chat w/ musicians like yourself.


It's Free!

This tab has not yet been rated for accuracy.Sorry, but you must be logged in to rate this tab.
Click here to log-in, or you can click here to register.
(Registration is free)

All songs owned by corresponding publishing company. If you make copies of any song on this website, be sure to report your usage to CCLI.
Submitted by: scheller

Laughing City
Eisley
EP: LAUGHING CITY
C 2003 Warner Brothers

Tabbed by scheller

I don't have the EP's yet, so I had to use the version available at eisley.com
to tab this out.  My powertab file for this song has the piano/guitar/bass parts
in sheet music and tab format (plus midi playback) and you can get it here:
http://www.christianguitar.org/forums/showthread.php?p=1416009


 Verse 1
    Am                G
    Gtr I (keys arranged for gtr)      8x
||----------12------|-10---------------||
||o-13------13------|-12------12------o||
||--14--------------|-12------12-------||
||------14--14--14--|-----12------12---||
||o-----------------|-----------------o||
||------------------|------------------||


 Pre-Chorus 1
    Am                G                4x
||----------12------|-10---------------||-----------------||
||o-13------13------|-12------12------o||-12------12------||
||--14--------------|-12------12-------||-12------12------||
||------14--14--14--|-----12------12---||-----12------12--||
||o-----------------|-----------------o||-----------------||
||------------------|------------------||-----------------||


 Chorus 1
  C              B+               Fmaj7+11       Dm
  Gtr II
|-----0--------|--------3-------|-------0------|------1--0-----|
|--------1-----|----(4)----4----|----------0---|-----------3---|
|-^0--------0--|-------------4--|--------------|----2--------0-|
|-^2-----------|----------------|-----3--------|-0-------------|
|-^3-----------|-2--------------|---3----------|---------------|
|--------------|----------------|-1------------|---------------|
|
| Gtr I
|--------------|----------------|--------------|-1-------------|
|--1-----------|-4--------------|--------------|-3-------------|
|--0-----------|-4--------------|-2------------|-2-------------|
|--2-----------|----------------|-3------------|-0-------------|
|--3-----------|-2--------------|--------------|---------------|
|--------------|----------------|-1------------|---------------|


  C               B+               Dm              G5
|-------0-------|--------3-------|-------1--0----|-------3-------|
|----------1----|----(4)----4----|---3--------3--|----------3----|
|---0--------0--|-------------4--|-----2---------|-^0--0------0--|
|-----2---------|----------------|-0-------------|-^0------------|
|-3-------------|-2--------------|---------------|---------------|
|---------------|----------------|---------------|-^3------------|
|
|---------------|----------------|-1-------------|---------------|
|-1-------------|-4--------------|-3-------------|--3------------|
|-0-------------|-4--------------|-2-------------|--0------------|
|-2-------------|----------------|-0-------------|---------------|
|-3-------------|-2--------------|---------------|---------------|
|---------------|----------------|---------------|--3------------|


  C               B+               Fmaj7+11       Dm
|-------0-------|--------3-------|-------0------|------1--0-----|
|----------1----|----(4)----4----|----------0---|-----------3---|
|---0--------0--|-------------4--|--------------|----2--------0-|
|-----2---------|----------------|-----3--------|-0-------------|
|-3-------------|-2--------------|---3----------|---------------|
|---------------|----------------|-1------------|---------------|
|
|---------------|----------------|--------------|-1-------------|
|-1-------------|-4--------------|--------------|-3-------------|
|-0-------------|-4--------------|-2------------|-2-------------|
|-2-------------|----------------|-3------------|-0-------------|
|-3-------------|-2--------------|--------------|---------------|
|---------------|----------------|-1------------|---------------|


  C               B+               Dm              G5
|-------0-------|--------3-------|-------1--0----|-^3----||
|----------1----|----(4)----4----|---3--------3--|-^3----||
|---0--------0--|-------------4--|-----2---------|-^0----||
|-----2---------|----------------|-0-------------|-^0----||
|-3-------------|-2--------------|---------------|-------||
|---------------|----------------|---------------|-^3----||
|
|---------------|----------------|-1-------------|-------||
|-1-------------|-4--------------|-3-------------|--3----||
|-0-------------|-4--------------|-2-------------|--0----||
|-2-------------|----------------|-0-------------|-------||
|-3-------------|-2--------------|---------------|-------||
|---------------|----------------|---------------|--3----||


 Verse 2
    Am                G                4x
||----------12------|-10---------------||
||o-13------13------|-12------12------o||
||--14--------------|-12------12-------||
||------14--14--14--|-----12------12---||
||o-----------------|-----------------o||
||------------------|------------------||


  Am                Em (or G?)            Am            Em
|-----------------|-------------------|-------12------|-------------------|
|-13------13------|-15--12-------12---|---13------13--|-15--12-------12---|
|-14------14------|---------12--(12)--|---14----------|---------12--(12)--|
|-----14------14--|-14----------------|-------14------|-14----------------|
|-----------------|-----14------------|---------------|-----14------------|
|-----------------|-------------------|---------------|-------------------|


    Am            Em                   Am            Em
|-------12------|-------------------|------12------|-------------------||
|---13------13--|-15--12-------12---|--13------13--|-15--12-------12---||
|---14----------|---------12--------|--14----------|---------12--(12)--||
|-------14------|-14----------------|------14------|-14----------------||
|---------------|-----14------------|--------------|-----14------------||
|---------------|-------------------|--------------|-------------------||


  Pre-Chorus 2
          Am            Em                 3x
||------------12------|--------------------||
||o-------13------13--|-15--12-------12---o||
||--------14----------|---------12---------||
||------------14------|-14-----------------||
||o-------------------|-----14------------o||
||--------------------|--------------------||


        Am            G
|-----------12------|-10------10------|-10------10-------||
|-------13------13--|-12------12------|-12------12-------||
|-------14----------|-----------------|------------------||
|-----------14------|-----12------12--|-----12------12---||
|-------------------|-----------------|------------------||
|-------------------|-----------------|------------------||


 Chorus 2 (same as Chorus 1)


 Guitar Solo (enters on last bar of Chorus 2)
             Gtr II plays Chorus Riff over this:
           C              B+               Fmaj7+11     Dm
|------||---------------|----------------|------------|-------------------|
|------||o--------------|----------------|------------|-------------------|
|------||---------------|----------------|------------|-------------------|
|----5-||--7---7/9---7--|---(7)\5------5-|-7--7/9---7-|---(7)\5------5----|
|-7----||o--------------|-----------7----|------------|-----------7-------|
|------||---------------|----------------|------------|-------------------|


 1st ending
  C             B+                Dm            G5          2x
|-------------|-----------------|-------------|-------------||
|-------------|-----------------|-------------|------------o||
|-------------|---------4/5-5/7-|------5p4-4--|-------------||
|-7---7/9---7-|-(7)\5-----------|-------------|---------5---||
|-------------|-----------------|-------------|------7-----o||
|-------------|-----------------|-------------|-------------||


 2nd ending
  C             B+                Dm           G5
|-------------|-----------------|-----------|--------------||
|-------------|-----------------|-----------|--------------||
|-------------|---------4/5-5/7-|------5p4--|--4-----------||
|-7---7/9---7-|-(7)\5-----------|-----------|--------------||
|-------------|-----------------|-----------|--------------||
|-------------|-----------------|-----------|--------------||


 Out-Chorus (play Chorus twice and end on C)


Generated using Power Tab Editor by Brad Larsen 
http://www.power-tab.net

Comments about this tab

No comments/corrections found. Add your own

Complimentary Christian Ringtones
Dadamobile and CGR have teamed up to bring your favorite Christian artists right to your phone. Sign up today and get 10 complementary ringtones!
Tab Country
Did you know CGR has a sister site w/ country guitar tabs? Well we do! Its called Tab Country. It has a great archive with a lot of country tabs.
Rockin Tabs
Are you looking for a site that has rock guitar tabs? Then Rockintabs.com is the place for you. It is a budding site with many rock guitar tabs. Submit your tab today.
Tab Gallery
Tab Gallery has a compilation of christian, rock, and country tabs all in one place. Come visit us.