Guitar Tabs
song title    band name

Join Us Today!

Don't strum alone...
be a part of the largest online Christian music community. Browse thousands of guitar tabs and chat w/ musicians like yourself.


It's Free!

This tab has been rated a 3.75 out of 5 for accuracy. (4 votes)Sorry, but you must be logged in to rate this tab.
Click here to log-in, or you can click here to register.
(Registration is free)

All songs owned by corresponding publishing company. If you make copies of any song on this website, be sure to report your usage to CCLI.
Submitted by: rockstar268

Pillar - Bring Me Down

This is my first tab so cut me a little slack.  I know Pillar does this in
Drop C (CGCFAD) but I'm tabbing it in Drop Db(Db Ab Db Gb Bb Eb)

Intro:
Db-2-2-2-2-2-2-5-0-0-0---------------2---------------------
Ab-2-2-2-2-2-2-5-0-0-0---------------2---------------------  x3
Db-2-2-2-2-2-2-5-0-0-0-7-7-5-5-7-5-5-2--------------------- 

On fourth time
Db-2-2-2-2-2-2-5-0-0-0-0-0-5----------------------------------
Ab-2-2-2-2-2-2-5-0-0-0-0-0-5----------------------------------
Db-2-2-2-2-2-2-5-0-0-0-0-0-3----------------------------------
                      pm pm

Don't have the verse sorry :(

Chorus:
Db-2-2-2-2-2-2-5-0-0-0---------------2---------------------
Ab-2-2-2-2-2-2-5-0-0-0---------------2---------------------
Db-2-2-2-2-2-2-5-0-0-0-7-7-5-5-7-5-5-2---------------------

Db-2-2-2-2-2-2-5-0-0-0-2-2-5-7-2---------------------------
Ab-2-2-2-2-2-2-5-0-0-0-2-2-5-7-2---------------------------  
Db-2-2-2-2-2-2-5-0-0-0-0-0-3-5-2---------------------------

Do that whole thing twice

Bridge:
Db---------------------------------------------------------
Ab--------------------------------------------------------- x2
Db-2-0-2-2-0-0-(2-0-2-2-0)---------------------------------
  pm....................  mute the () 1st time only

Db-2-0-2-2-0-0-2-0-2-2-0---------------------------------
Ab-2-0-2-2-0-0-2-0-2-2-0--------------------------------- x3
Db-2-0-2-2-0-0-2-0-2-2-0---------------------------------

fourth time
Db-2-0-2-2-0-0-2-0-2-2-5/7-10-------------------------------
Ab-2-0-2-2-0-0-2-0-2-2-5/7-10------------------------------- 
Db-2-0-2-2-0-0-2-0-2-2-5/7-10-------------------------------

Then the Chorus one more time and for the outro do:
Db-2-0-2-2-0-0-2-0-2-2-0---------------------------------
Ab-2-0-2-2-0-0-2-0-2-2-0---------------------------------
Db-2-0-2-2-0-0-2-0-2-2-0---------------------------------

Db-2-0-2-2-0-0-2-----------------------------------------
Ab-2-0-2-2-0-0-2-----------------------------------------
Db-2-0-2-2-0-0-2-----------------------------------------

Thats as close as I could get.  I know some of its off, but its should be
really close.

Comments about this tab

rockstar268 - 2004-07-02

On the 4th time on the intro it should be
Gb-5---------- intstead of Db--5---
Db-5---------- Ab--5---
Ab-3---------- DB--3---
Db------------


39lashes - 2004-07-11

the verse is played like this:

Gb[-------------------------|----|---4-----------]
Db[-5-5-4-4-7-7--7-2-2-2-2h4|----|-4-------------]
Ab[-------------------------|-3-2|----2nd ending-]
/---------------/\ /\
/ ||
1st ending/ give it a little wiggle

that is how the verse is played just
switch on and off with endings.

the little part in the bridge is like this:

repeated:

Gb[---------------------------------4-]
Db[-4-5-5-5-4-5-5-5-4-5-5-5-4-5-5-5---]

there you go with the missing part.

~charlie sandberg


Deevon07 - 2004-07-13

hey-
if i were you i would just wait for the book to come out in the fall. until then just stand in awe of how many people noah can baffle with one song.
-deevon.


Dani_Boy - 2006-04-17

I think I'll have to tab this song soon. It's so good! This tab is not bad for a first tab, but the song is more complicated than that. Rawk on!


cody horne - 2006-04-29

does anyone know how to put a tab on this web site? help please!


guitarcordfreak - 2006-05-23

I agree!! I've tried and tried to submitt one but they never come up! so could someone tell me what I am doing wrong please,please,please cuz I got a really really good tab for this song and for other songs that haven't been tabbed yet like Million Dollar Man by Kutless!


Add a comment/correction

Complimentary Christian Ringtones
Dadamobile and CGR have teamed up to bring your favorite Christian artists right to your phone. Sign up today and get 10 complementary ringtones!
Tab Country
Did you know CGR has a sister site w/ country guitar tabs? Well we do! Its called Tab Country. It has a great archive with a lot of country tabs.
Rockin Tabs
Are you looking for a site that has rock guitar tabs? Then Rockintabs.com is the place for you. It is a budding site with many rock guitar tabs. Submit your tab today.
Tab Gallery
Tab Gallery has a compilation of christian, rock, and country tabs all in one place. Come visit us.