Guitar Tabs
song title    band name

Join Us Today!

Don't strum alone...
be a part of the largest online Christian music community. Browse thousands of guitar tabs and chat w/ musicians like yourself.


It's Free!

This tab has not yet been rated for accuracy.Sorry, but you must be logged in to rate this tab.
Click here to log-in, or you can click here to register.
(Registration is free)

All songs owned by corresponding publishing company. If you make copies of any song on this website, be sure to report your usage to CCLI.
Submitted by: joseph robinson

Chevelle
The Red

TUNING-C#,F#,B,E,G#,C#
---------------------------------------------------------------------------------------------------------------
    E5                    G5                N.C(E5)  
-|-----------------------------------------|----------------------------------------------|--------------------
-|-----------------------------------------|----------------------------------------------|--------------------
-|-----------------------------------------|----------------------------------------------|--------------------
-|-----------------------------------------|----------------------------------------------|--------------------
-|--7-/-9---|-------------5---/--5---5--0--|---7---/--9---------]--10----/--10--10--0-----|--------------------
-|--0-/-0---|--0---0------3---/--0---3--0--|---0---/--0---0---0-]--8-----/----------------|--------------------
    1st verse
    N.C(E5)           G5                N.C(E5)         C5                     
-|-----------------------------------|--------------------------------------|---------------------|------------    
-|-----------------------------------|--------------------------------------|---------------------|------------
-|-----------------------------------|-------------------------------------|----------------------|------------
-|-----------------------------------|-------------------------------------|------repeat previous|-------------
-|--7-/--9----7--0----5--/--5--5--0--|--7--/--9--7--/---10--/--10--10--0---|------two measures---|-------------
-|--0-/--0----0--0----3--/--0--3--0--|--0--/--0--0--/---8---/--0---8---0---|---------------------|-------------     
                                     

             2                        N.C(E5)      
-|-----------------------------------|----------------------------------|------------------------|-------------
-|-----------------------------------|----------------------------------|------------------------|-------------
-|-----------------------------------|----------------------------------|------------------------|-------------
-|-----------------------------------|----------------------------------|------------------------|-------------
-|----REPEAT-------------------------|-7--/---9---7--0---5--/--5--5--0--|-7-/-9--7--/--10--------|-------------
-|---MEASURE-------------------------|-0--/---0---0--0---3--/--0--3--0--|-0-/-0--0--/--8---------|-------------

1st and 2nd chorus

SL=Slide   
         
   E5
-|--------------------------------|---------------------------------------------------------------|------------
-|--------------------------------|---------------------------------------------------------------|------------
-|--------------------------------|---------------------------------------------------------------|------------
-|-2.--------/--------/-------/-------|-5.-----/--------/-------/---------------------------------|------------
-|-2.--------/--------/-------/-------|-5.-----/--------/-------/--------5------------------------|------------
-|-0.--------/--------/-------/-----0-|-3.-----/--------/-------/--SL5---5------------------------|------------



 
    D5/A                                                           E5   
-|------------------------------|--------------------------------|------------------------------------|---------
-|------------------------------|--------------------------------|------------------------------------|---------
-|--7---/-----/------/-------/--|---/------/------/------/-------|--------/-------/------/-------/----|---------
-|--7---/-----/------/-------/--|---/------/------/------/-------|-2------/-------/------/-------/----|---------
-|--5---/-----/------/-------/--|---/------/------/------/----0--|-2------/-------/------/-------/----|---------
-|--5---/-----/------/-------/--|---/------/------/------/----0--|-0------/-------/------/-------/---0|---------

*=Hammer on
   G5
-|---------------------------------------------|---------------------------------|-------------------------|-----
-|---------------------------------------------|---------------------------------|-------------------------|-----
-|---------------------------------------------|--7---/------/------/------/-----|-----------4---/------/--|-----
-|-5-------/-------/-------/---------/---------|--7---/------/------/------/-----|-----------4---/------/-0|-----
-|-5-------/-------/-------/---------/------5--|--5---/------/------/------/---0-|--0*-2--2--2---/------/-0|-----
-|-3-------/-------/-------/---------/-SL5--5--|--5---/------/------/------/-----|---------------/------/--------


Gtrs 1 and 2 
   N.C(E5)                              G5                                        N.C(E5)
-|--------------------------------------------------------------------|------------------------------------------
-|--------------------------------------------------------------------|------------------------------------------
-|--------------------------------------------------------------------|------------------------------------------
-|--------------------------------------------------------------------|------------------------------------------
-|-7------/------9------7-------/-------5-------/-------5-------5------0--|--------7-------/-------9-------------
-|-0------/------0------0-------/-------3-------/-------0-------3------0--|--------0-------/-------0-------0-----




-|------------------------------------------|--------------------------------------------------------------------|--
-|------------------------------------------|--------------------------------------------------------------------|--
-|------------------------------------------|--------------------------------------------------------------------|--
-|------------------------------------------|--------------------------------------------------------------------|--
-|---------10------/-------10------10-----0-|-7------/------9------7------0------5------/------5------5------0---|--
-|-0-------8-------/-------0-------8------0-|-0------/------0------0------0------3------/------0------3------0---|--


  2nd verse
  N.C(E5)                                                                             2                         2
-|--------------------------------------------------------------------|----------------------------------|-----------
-|--------------------------------------------------------------------|----------------------------------|-----------
-|--------------------------------------------------------------------|----------------------------------|-----------
-|--------------------------------------------------------------------|----------------------------------|-----------
-|-7------/------9------7------0------10------/------10------10----0--|----------------------------------|-----------
-|-0------/------0------0------0------8-------/------0-------8-----0--|----------------------------------|-----------


                                                                                                                
           2                            2                      N.C(E5)p.m.-----------------G5
-|-------------------|---------------------------------------||-----------------------------------------------------|--
-|-------------------|---------------------------------------||-----------------------------------------------------|--
-|-------------------|---------------------------------------||-----------------------------------------------------|--
-|-------------------|---------------------------------------||-----------------------------------------------------|--
-|-------------------|---------------------------------------||-7------/------9------7------0------5------/------5--|--
-|-------------------|---------------------------------------||-0------/------0------0------0------3------/------0--|--

                                                      
                                               
                                                       interlude
                                                       N.C(E5)       G5          N.C.(E5)    C5        N.C(E5)      
G5cont'd     N.C(E5)                             C5    gtrs 1&2 play Rhy.Fig.1 simile(see meas. 3)
   p.m.----------------------------------------]>      Gtr 3(w/dist. and fast modulation effect)                      
-|----------|----------------------------------------|-----------------------|-----------------------|--------------------|-
-|----------|----------------------------------------|-----------------------|-----------------------|--------------------|-
-|----------|----------------------------------------|-----------------------|-----------------------|--------------------|-
-|----------|----------------------------------------|--9--12x---------------|---9(12x)---0(3x)------|-------2(12x)-------|-
-|-5------0-|-7------/------9------7------/------10--|-----------------------|-----------------------|--------------------|-
-|-3------0-|-0------/------0------0------/------8---|-----------------------|-----------------------|--------------------|-  


-|------------------------|---------------------------------|------------------------------|------------------
-|------------------------|---------------------------------|------------------------------|------------------
-|------------------------|---------------------------------|------------------------------|------------------
-|-9(12x)-----------------|------------9(8x)------0(3x)-----|----------2(12x)--------------|----------2(6x)---
-|------------------------|---------------------------------|------------------------------|------------------
-|------------------------|---------------------------------|------------------------------|------------------







                                                                        Gtrs 1&2
Gtrs 1&2 play rhy. fig.1 simile (w/o.P.M)                                           E5
'=Extend note
PPP=?
-|-----------------------|-----------------------|------------------------15----||----------------------------------------|-
-|------15'---------------|-----15'----------------|----15'---------------15----||----------------------------------------|-
-|-----------------------|-----------------------|------------------------------||----------------------------------------|-
-|-----------------------|-----------------------|------------------------------||-2------/------/------/-----------------|-
-|-----------------------|-----------------------|------------------------------||-2------/------/------/-----------------|-
-|-----------------------|-----------------------|------------------------------||-0------/------/------/---0------0------|-



  3rd Chorus
                                                  D5/A
  E5                                                                                                                    P.M.  
-|----------------------------------------------|--------------------------------|----------------------------------------|-
-|----------------------------------------------|--------------------------------|----------------------------------------|-
-|----------------------------------------------|-7------/------/------/-------/-|------/------/-------/-------/----------|-
-|-5------/------/------/-----------------------|-7------/------/------/-------/-|------/------/-------/-------/----------|-
-|-5------/------/------/---------------5-------|-5------/------/------/-------/-|------/------/-------/-------/------0---|-
-|-3------/------/------/--------5------5-------|-5------/------/------/-------/-|------/------/-------/-------/------0---|-



>                >                 >                   >                    >                      >                     >
--------------------------------------------|--------------------------------------------------|--------------------------|-
--------------------------------------------|--------------------------------------------------|--------------------------|-
--------------------------------------------|--------------------------------------------------|-7------/------/----------|-
-2------/------/------/------/--------------|-5------/------/------/------/--------------------|-7------/------/----------|-
-2------/------/------/------/--------------|-5------/------/------/------/-------------5------|-5------/------/----------|-
-0------/------/------/------/------0------0|-3------/------/------/------/------5------5------|-5------/------/----------|-



P.M                                                                                         N.C(E5)
-|-------------------------------|--------------------------------------------------------|-------------------------------|-
-|-------------------------------|--------------------------------------------------------|-------------------------------|-
-|-------------------------------|--------------------------------------------------------|-------------------------------|-
-|-/------/------/------/--------|-4*------------4------/------/------/------5------0-----|-------------------------------|-
-|-/------/------/------/--------|-0------2------2------/------/------/------2------0-----|-7------/------9------7------/-|-
-|-/------/------/------/------0-|----------------------/------/------/-------------0-----|-0------/------0------0------/-|-

                                 
                                  N.C(E5)                             C5 
> G5             >              >                 >                >                   >                   >              >
-|-------------------------------|------------------------------------------------------------------------|----------------|-
-|-------------------------------|------------------------------------------------------------------------|----------------|-
-|-------------------------------|------------------------------------------------------------------------|----------------|-
-|-------------------------------|------------------------------------------------------------------------|----------------|-
-|-5------/------5------5------0-|-7------/------9--------------------10------/------10------10------0----|----------------|-
-|-3------/------0------3------0-|-0------/------0------0------0------8-------/------0--------8------0----|-------------=--|-



  

-|----------------------------|---------------------------------------|-------------------------------------------|--------|-
-|----------------------------|---------------------------------------|-------------------------------------------|--------|-
-|----------------------------|---------------------------------------|-------------------------------------------|--------|-
-|----------------------------|---------------------------------------|------------------Repeat-------------------|--------|-
-|---------Repeat-------------|------------Repeat---------------------|-------------------------------------------|--------|-
-|----------------------------|---------------------------------------|-------------------------------------------|--------|-


N.C(E5)
>                >                >                             >                      >                     >
-|------------------------------------------------------------------|------------------------------------------------------|-
-|------------------------------------------------------------------|------------------------------------------------------|-
-|------------------------------------------------------------------|------------------------------------------------------|-
-|------------------------------------------------------------------|------------------------------------------------------|-
-|-7------/------9------7-------------5------/------5------5------0-|-7------/------9------7-------/------10------/------10|-
-|-0------/------0------0------0------3------/------0------3------0-|-0------/------0------0-------/-------8------/-------0|-



Gtrs 1&|2                                                                       B5vii
-|-----------------------------------------------------------------------------|-------------------------------------------|-
-|-----------------------------------------------------------------------------|-------------------------------------------|-
-|-----------------------------------------------------------------------------|-------------------------------------------|-
-|-----------------------------------------------------------------------------|-------------------------------------------|-
-|-10------/------x------x------x------x--10-----/------x------x------x------x-|-9------/------x------x------x------x------|-
-|-8-------/------x------x------x------x--8------/------x------x------x------x-|-7------/------x------x------x------x------|-


                                
                                 N.C(E5)                            G5                              N.C(E5)
-|-----------------------------|------------------------------------------------------------------|--------------------------------|---
-|-----------------------------|------------------------------------------------------------------|--------------------------------|---
-|-----------------------------|------------------------------------------------------------------|--------------------------------|---
-|-----------------------------|------------------------------------------------------------------|--------------------------------|---
-|-9------/------x-------------|-7------/------0--------------------5------/------5------5------0-|-7-----/----9-------------------|---
-|-7------/------x------3*-10--|-0------/------0------0------0------3------/------0------3------0-|-0-----/----0-------0-------0---|---


   *= Legato slide left&right  



 Gtrs5&6                                                                                                                    
                                                                                                     Gtrs 1&2          
-|-------------------------------|---------------------------------|-------------------------------|--------------------
-|-------------------------------|---------------------------------|-------------------------------|--------------------
-|-------------------------------|---------------------------------|-------------------------------|--------------------
-|-------------------------------|---------Repeat------------------|-----------Repeat--------------|-2------------------
-|-10-----/------10-----10-----0-|---------------------------------|-------------------------------|-2------------------
-|-8------/-------0-----8------0-|---------------------------------|-------------------------------|-0------------------




|----------------------------|------------------------------------------|------------------------------------------------------------------
|----------------------------|------------------------------------------|------------------------------------------------------------------
|----------------------------|------------------------------------------|------------------------------------------------------------------
|-2--------------------------|-------------------2----------------------|------------------------------------------------------------------
|-2--------------------------|-------------------2----------------------|-7------/------9------7------0------5------/------5------5------0-
|-0--------------------------|-------------------0----------------------|-0------/------0------0------0------3------/------0------3------0-



  N.C(E5                              C5                      N.C(E5)  End. 
-|-----------------------------------------------------------|-----------------------
-|-----------------------------------------------------------|-----------------------------------
-|-----------------------------------------------------------|------------------------------------
-|-----------------------------------------------------------|--------------------------------
-|-7------/------9--------------------10-----/------x------0-|-7----------------------------------------
-|-0------/------0------0------0------8------/------0------0-|-0-----------------------------------------

Comments about this tab

No comments/corrections found. Add your own

Complimentary Christian Ringtones
Dadamobile and CGR have teamed up to bring your favorite Christian artists right to your phone. Sign up today and get 10 complementary ringtones!
Tab Country
Did you know CGR has a sister site w/ country guitar tabs? Well we do! Its called Tab Country. It has a great archive with a lot of country tabs.
Rockin Tabs
Are you looking for a site that has rock guitar tabs? Then Rockintabs.com is the place for you. It is a budding site with many rock guitar tabs. Submit your tab today.
Tab Gallery
Tab Gallery has a compilation of christian, rock, and country tabs all in one place. Come visit us.