Guitar Tabs
song title    band name

Join Us Today!

Don't strum alone...
be a part of the largest online Christian music community. Browse thousands of guitar tabs and chat w/ musicians like yourself.


It's Free!

This tab has been rated a 5.00 out of 5 for accuracy. (1 vote)Sorry, but you must be logged in to rate this tab.
Click here to log-in, or you can click here to register.
(Registration is free)

All songs owned by corresponding publishing company. If you make copies of any song on this website, be sure to report your usage to CCLI.
Submitted by: SomeCallMeTim?

Album:Enter The Danger Brigade

heres the intro for the song with 2 chords and a solo part

e---------------------|x3-----------------------
b---------------------|-------------------------
g---------------------|-------------------------
d----------7-6-66-----|----333-222------555-333-
a--0/5-55-5-----------|000----------111---------
e----------------66-6-|-------------------------
slide first time only

e------------------------|3x----------------------
b------------------------|------------------------
g------------------------|------------------------
d----------7-6-66[6]-----|----333-222-----555-33--
a--5-55-(5)--------------|000----------111--------
e-------------------66-6-|------------------------
(1st/3rd time only) [2nd time only]

these are two of the chords used in this song i think theres more i havent
been able to figure them out yet
   D  C#
e--5--4
b--6--6
g--7--6
d--7--6
a--5--4
e------


3:21
e--3-1-0h1--
b----------3
g-----------
d-----------
a-----------
e-----------

Comments about this tab

SomeCallMeTim? - 2004-07-05

ok i fixed the intro part up it was missing some notes and i put repeat signs in so its easier to read

1 2
e-----------------------|-------------------|-------------------------|
b-----------------------|-------------------|-------------------------|
g-----------------------|------------------o|-------------------------|
d-----------7-6-66------|------7-6-66------o|-----------------555-333-|
a--0/5-55-5-------------|5-55-5-------------|000-888-777--------------|
e-----------------66-66-|-------------66-55-|-------------666---------|
slide first time only

00:10 1 2
e-----------------------|-------------------|-------------------------|
b-----------------------|-------------------|-------------------------|
g-----------------------|------------------o|-------------------------|
d---------7-6-66--------|-----8-7-66-6-----o|-----------------555-333-|
a--5-55-5---------------|5-55---------------|000-888-777--------------|
e-----------------66-66-|-------------66-6--|-------------666---------|


Add a comment/correction

Complimentary Christian Ringtones
Dadamobile and CGR have teamed up to bring your favorite Christian artists right to your phone. Sign up today and get 10 complementary ringtones!
Tab Country
Did you know CGR has a sister site w/ country guitar tabs? Well we do! Its called Tab Country. It has a great archive with a lot of country tabs.
Rockin Tabs
Are you looking for a site that has rock guitar tabs? Then Rockintabs.com is the place for you. It is a budding site with many rock guitar tabs. Submit your tab today.
Tab Gallery
Tab Gallery has a compilation of christian, rock, and country tabs all in one place. Come visit us.