Guitar Tabs
song title    band name

Join Us Today!

Don't strum alone...
be a part of the largest online Christian music community. Browse thousands of guitar tabs and chat w/ musicians like yourself.


It's Free!

This tab has been rated a 5.00 out of 5 for accuracy. (1 vote)Sorry, but you must be logged in to rate this tab.
Click here to log-in, or you can click here to register.
(Registration is free)

All songs owned by corresponding publishing company. If you make copies of any song on this website, be sure to report your usage to CCLI.
Submitted by: scheller

World Without End
Five Iron Frenzy
Album: ALL THE HYPE THAT MONEY CAN BUY
Copyright 2000 5 Minute Walk Records
Words by Reese Roper

Transcribed by scheller  sonnyschell@hotmail.com
Powertab file available here:
http://www.christianguitar.org/forums/showthread.php?t=61549&page=4

TP means to play the note very fast for its duration.

 Intro
  Gtr I
  A
  TP         TP           TP         TP    3x
|----------|----------||-----------|-------||
|----------|----------||o----------|------o||
|----------|----------||-----------|-------||
|----------|----------||-----------|-------||
|----------|----------||o----------|------o||
|-5--------|-5--------||--5--------|-5-----||
|
| Gtr II                  TP         TP    3x
|----------|----------||-----------|-------||
|----------|----------||o----------|------o||
|----------|----------||-----------|-------||
|----------|----------||-----------|-------||
|----------|----------||o-4--------|-4----o||
|----------|----------||-----------|-------||


    $
    A5    E/G#    A5      G5            D5     4x
||----------------------|----------------------||
||o---------------------|---------------------o||
||----------------------|----------------------||
||----------------------|---------------7-7-7--||
||o-7-7-7-7-7-7-7-7-7-7-|-5-5-5-5-5-5-5-5-5-5-o||
||--5-5-5-4-4-4-4-5-5-5-|-3-3-3-3-3-3-3--------||


   Verse                                         To Coda
    A5            E/A5B     Bb              F#        4x
||------------------------|---------------------------||
||o-----------------------|--------------------------o||
||------------------------|-----------------11-11-11--||
||--------------------(9)-|-(8)-----------------------||
||o-7-7-7-7-7-7-7-7-7-----|------------------9--9--9-o||
||--5-5-5-5-5-5-5-4-5--7--|--6--6-6-6-6-6-6-----------||


 Pre-Chorus
  E                                   D                 C#      B
|-----------------|-----------------|-----------------|------------------|
|-----------------|-----------------|-----------------|------------------|
|-9-9-9-9-9-9-9-9-|-9-9-9-9-9-9-9-9-|-7-7-7-7-7-7-7-7-|-6-6-6-6-4-4-4-4--|
|-----------------|-----------------|-----------------|------------------|
|-7-7-7-7-7-7-7-7-|-7-7-7-7-7-7-7-7-|-5-5-5-5-5-5-5-5-|-4-4-4-4-2-2-2-2--|
|-----------------|-----------------|-----------------|------------------|


 Chorus
  $$
  A5                                  E/G#
  Gtr I
|-----------------|-----------------|-----------------|------------------|
|-----------------|-----------------|-----------------|------------------|
|-----------------|-----------------|-----------------|------------------|
|-----------------|-----------------|-----------------|------------------|
|-7-7-7-7-7-7-7-7-|-7-7-7-7-7-7-7-7-|-7-7-7-7-7-7-7-7-|-7-7-7-7-7-7-7-7--|
|-5-5-5-5-5-5-5-5-|-5-5-5-5-5-5-5-5-|-4-4-4-4-4-4-4-4-|-4-4-4-4-4-4-4-4--|
|
| Gtr II
|-----------------|-----------------|-----------------|------------------|
|-----------------|-----------------|-----------------|------------------|
|-6-6-6-6-6-6-6-6-|-7-7-7-7-9-9-9-9-|-4-4-4-4-4-4-4-4-|-6-6-6-6-9-9-9-9--|
|-----------------|-----------------|-----------------|------------------|
|-4-4-4-4-4-4-4-4-|-5-5-5-5-7-7-7-7-|-2-2-2-2-2-2-2-2-|-4-4-4-4-7-7-7-7--|
|-----------------|-----------------|-----------------|------------------|


  F#5                                     E5                D       C#
|---------------------|-----------------|-----------------|------------------|
|---------------------|-----------------|-----------------|------------------|
|---------------------|-----------------|-----------------|-7-7-7-7-6-6-6-6--|
|---------------------|-----------------|-----------------|------------------|
|--4--4--4--4-4-4-4-4-|-4-4-4-4-4-4-4-4-|-2-2-2-2-2-2-2-2-|-5-5-5-5-4-4-4-4--|
|--2--2--2--2-2-2-2-2-|-2-2-2-2-2-2-2-2-|-0-0-0-0-0-0-0-0-|------------------|
|
|---------------------|-----------------|-----------------|------------------|
|---------------------|-----------------|-----------------|------------------|
|-11-11-11-11-6-6-6-6-|-4-4-4-4-6-6-6-6-|-4-4-4-4-4-4-4-4-|-4-4-4-4-4-4-4-4--|
|---------------------|-----------------|-----------------|------------------|
|--9--9--9--9-4-4-4-4-|-2-2-2-2-4-4-4-4-|-2-2-2-2-2-2-2-2-|-2-2-2-2-2-2-2-2--|
|---------------------|-----------------|-----------------|------------------|


  A5
|-----------------|-----------------|
|-----------------|-----------------|
|-----------------|-----------------|
|-----------------|-----------------|
|-7-7-7-7-7-7-7-7-|-7-7-7-7-7-7-7-7-|
|-5-5-5-5-5-5-5-5-|-5-5-5-5-5-5-5-5-|
|
|-----------------|-----------------|
|-----------------|-----------------|
|-6-6-6-6-6-6-6-6-|-7-7-7-7-9-9-9-9-|
|-----------------|-----------------|
|-4-4-4-4-4-4-4-4-|-5-5-5-5-7-7-7-7-|
|-----------------|-----------------|


  E/G#
|-------------------------|----------------------|
|-------------------------|----------------------|
|-------------------------|----------------------|
|-------------------------|----------------------|
|--7--7--7--7--7--7--7--7-|-7-7-7-7--7--7--7--7--|
|--4--4--4--4--4--4--4--4-|-4-4-4-4--4--4--4--4--|
|
|-------------------------|----------------------|
|-------------------------|----------------------|
|-13-13-13-13-13-13-13-13-|-9-9-9-9-13-13-13-13--|
|-------------------------|----------------------|
|-11-11-11-11-11-11-11-11-|-7-7-7-7-11-11-11-11--|
|-------------------------|----------------------|


  F#5
|-------------------------|-------------------------|
|-------------------------|-------------------------|
|-------------------------|-------------------------|
|-------------------------|-------------------------|
|--4--4--4--4--4--4--4--4-|--4--4--4--4--4--4--4--4-|
|--2--2--2--2--2--2--2--2-|--2--2--2--2--2--2--2--2-|
|
|-------------------------|-------------------------|
|-------------------------|-------------------------|
|-14-14-14-14-14-14-14-14-|-16-16-16-16-13-13-13-13-|
|-------------------------|-------------------------|
|-12-12-12-12-12-12-12-12-|-14-14-14-14-11-11-11-11-|
|-------------------------|-------------------------|


                                                    D.S. al Coda
                                                    D.S. al Coda
  D               C#                B               G#
|---------------------------------|----------------------------------||
|---------------------------------|----------------------------------||
|-(7)-(7)-(7)-(7)-(6)-(6)-(6)-(6)-|-(4)-(4)-(4)-(4)------------------||
|---------------------------------|-----------------(6)-(6)-(6)-(6)--||
|--5---5---5---5---4---4---4---4--|--2---2---2---2-------------------||
|---------------------------------|------------------4---4---4---4---||
|
|---------------------------------|----------------------------------||
|---------------------------------|----------------------------------||
|-14--14--14--14--14--14--14--14--|-13--13--13--13---9---9---9---9---||
|---------------------------------|----------------------------------||
|-12--12--12--12--12--12--12--12--|-11--11--11--11---7---7---7---7---||
|---------------------------------|----------------------------------||


 Pre-Chorus 2
  &                                                  D.S.S. al Dbl. Coda
  E                                   D       C#        B
|-----------------|-----------------|-----------------|------------------|
|-----------------|-----------------|-----------------|------------------|
|-9-9-9-9-9-9-9-9-|-9-9-9-9-9-9-9-9-|-7-7-7-7-6-6-6-6-|-4-4-4-4-4-4-4-4--|
|-----------------|-----------------|-----------------|------------------|
|-7-7-7-7-7-7-7-7-|-7-7-7-7-7-7-7-7-|-5-5-5-5-4-4-4-4-|-2-2-2-2-2-2-2-2--|
|-----------------|-----------------|-----------------|------------------|


 Bridge
  &&
  Palm Mute - - - - - - - - - - - - - -| 
|-----------------|---------------------|
|-----------------|---------------------|
|-----------------|-------------9-9-9-9-|
|-7-7-7-7-9-9-9-9-|-11-11-11-11---------|
|-----------------|---------------------|
|-----------------|---------------------|

 Palm Mute - - - - - - - - - - - - - - - - -|
|---------------------|----------------------|
|---------------------|----------------------|
|-8-8-8-8-------------|----------------------|
|---------11-11-11-11-|-9-9-9-9--------------|
|---------------------|---------11-11-11-11--|
|---------------------|----------------------|

  Palm Mute - - - - - - - - - - - - - -- - - - - - -|
|-----------------|---------------------|-----------------|------------------|
|-----------------|---------------------|-----------------|------------------|
|-----------------|-------------9-9-9-9-|-8-8-8-8-8-8-8-8-|-8-8-8-8-8-8-8-8--|
|-7-7-7-7-9-9-9-9-|-11-11-11-11---------|-----------------|------------------|
|-----------------|---------------------|-----------------|------------------|
|-----------------|---------------------|-----------------|------------------|
|
| Gtr II
|-----------------|---------------------|-----------------|------------------|
|-----------------|---------------------|-----------------|------------------|
|-----------------|---------------------|-----------------|------------------|
|-----------------|-------------6-6-6-6-|-4-4-4-4-4-4-4-4-|-4-4-4-4-4-4-4-4--|
|-4-4-4-4-6-6-6-6-|--7--7--7--7---------|-----------------|------------------|
|-----------------|---------------------|-----------------|------------------|


  F#                 E
|------------------|---------------------|
|------------------|-------------9-9-9-9-|
|------------------|---------------------|
|--7-7-7-7-9-9-9-9-|-11-11-11-11---------|
|------------------|---------------------|
|------------------|---------------------|
|
|------------------|---------------------|
|------------------|---------------------|
|-11---------------|--9------------------|
|------------------|---------------------|
|--9---------------|--7------------------|
|------------------|---------------------|


  G#                    F#
|---------------------|-----------------------|
|---------------------|-----------------------|
|-11-11-11-11-9-9-9-9-|--8-8-8-8--------------|
|---------------------|----------11-11-11-11--|
|---------------------|-----------------------|
|---------------------|-----------------------|
|
|---------------------|-----------------------|
|---------------------|-----------------------|
|-13------------------|-11--------------------|
|---------------------|-----------------------|
|-11------------------|--9--------------------|
|---------------------|-----------------------|


  Bb                        B
|-------------------------|-------------------------|
|-------------------------|-------------------------|
|--8--8--8--8--9--9--9--9-|--8--8--8--8--9--9--9--9-|
|-------------------------|-------------------------|
|-------------------------|-------------------------|
|-------------------------|-------------------------|
|
|-------------------------|-------------------------|
|-------------------------|-------------------------|
|-15-15-15-15-15-15-15-15-|-16-16-16-16-16-16-16-16-|
|-------------------------|-------------------------|
|-13-13-13-13-13-13-13-13-|-14-14-14-14-14-14-14-14-|
|-------------------------|-------------------------|


  A                         G#
|-------------------------|--------------------------|
|-------------------------|--------------------------|
|--8--8--8--8--9--9--9--9-|--8--8--8--8--9--9--9--9--|
|-------------------------|--------------------------|
|-------------------------|--------------------------|
|-------------------------|--------------------------|
|
|-------------------------|--------------------------|
|-------------------------|--------------------------|
|-14-14-14-14-14-14-14-14-|-13-13-13-13-13-13-13-13--|
|-------------------------|--------------------------|
|-12-12-12-12-12-12-12-12-|-11-11-11-11-11-11-11-11--|
|-------------------------|--------------------------|


  G#                        A
|-------------------------|-------------------------|
|-------------------------|-------------------------|
|--8--8--8--8--9--9--9--9-|--8--8--8--8--9--9--9--9-|
|-------------------------|-------------------------|
|-------------------------|-------------------------|
|-------------------------|-------------------------|
|
|-------------------------|-------------------------|
|-------------------------|-------------------------|
|-13-13-13-13-13-13-13-13-|-14-14-14-14-14-14-14-14-|
|-------------------------|-------------------------|
|-11-11-11-11-11-11-11-11-|-12-12-12-12-12-12-12-12-|
|-------------------------|-------------------------|


  G                         F#                         C#
|-------------------------|--------------------------|--------|--------|
|-------------------------|--------------------------|--------|--------|
|--8--8--8--8--9--9--9--9-|--8--8--8--8--9--9--9--9--|-6------|-(6)----|
|-------------------------|--------------------------|--------|--------|
|-------------------------|--------------------------|--------|--------|
|-------------------------|--------------------------|--------|--------|
|
|-------------------------|--------------------------|--------|--------|
|-------------------------|--------------------------|--------|--------|
|-12-12-12-12-12-12-12-12-|-11-11-11-11-11-11-11-11--|-6------|-(6)----|
|-------------------------|--------------------------|--------|--------|
|-10-10-10-10-10-10-10-10-|--9--9--9--9--9--9--9--9--|-4------|-(4)----|
|-------------------------|--------------------------|--------|--------|


 Out-Chorus [Play Chorus 2x]


 A cappella Outro
  A5                   
|--------------|----------------|----------------|-----------------|
|--------------|----------------|----------------|-----------------|
|--------------|----------------|----------------|-----------------|
|--------------|----------------|----------------|-----------------|
|--7-----------|--(7)-----------|--(7)-----------|--(7)------------|
|--5-----------|--(5)-----------|--(5)-----------|--(5)------------|
|
|                  
|--------------|----------------|----------------|-----------------|
|--------------|----------------|----------------|-----------------|
|-14-----------|-(14)-----------|-(14)-----------|-(14)------------|
|--------------|----------------|----------------|-----------------|
|-12-----------|-(12)-----------|-(12)-----------|-(12)------------|
|--------------|----------------|----------------|-----------------|
|
| Bells (this repeats while song fades out)
|--------------|----------------|----------------|-----------------|
|-10--9--7-----|----------------|--10---9--7-----|-----------------|
|-----------9--|---7---6--------|-------------9--|---7---6---------|
|--------------|----------9--7--|----------------|----------9--7---|
|--------------|----------------|----------------|-----------------|
|--------------|----------------|----------------|-----------------|


Generated using Power Tab Editor by Brad Larsen

Comments about this tab

No comments/corrections found. Add your own

Complimentary Christian Ringtones
Dadamobile and CGR have teamed up to bring your favorite Christian artists right to your phone. Sign up today and get 10 complementary ringtones!
Tab Country
Did you know CGR has a sister site w/ country guitar tabs? Well we do! Its called Tab Country. It has a great archive with a lot of country tabs.
Rockin Tabs
Are you looking for a site that has rock guitar tabs? Then Rockintabs.com is the place for you. It is a budding site with many rock guitar tabs. Submit your tab today.
Tab Gallery
Tab Gallery has a compilation of christian, rock, and country tabs all in one place. Come visit us.