Guitar Tabs
song title    band name

Join Us Today!

Don't strum alone...
be a part of the largest online Christian music community. Browse thousands of guitar tabs and chat w/ musicians like yourself.


It's Free!

This tab has not yet been rated for accuracy.Sorry, but you must be logged in to rate this tab.
Click here to log-in, or you can click here to register.
(Registration is free)

All songs owned by corresponding publishing company. If you make copies of any song on this website, be sure to report your usage to CCLI.
Submitted by: JonathanT

Somebody Touched Me
By Bruce Cockburn
From “Nothing But a Burning Light”


Tablature by Jonathan Tieszen
Tuning:  Drop D (D A D G B e)

Chords:   
   A      x 0 2 2 2 x
   D      x 0 4 2 3 x
   G6     5 x 0 0 0 0
   G      5 x 0 0 3 0
   Dsus4  x x 0 2 3 3
   Bm5    x x 9 7 8 7
   C#m#5  x x 11 9 10 9 

   s-slide
   sd-slide down
                                     A                   G6
    ,   .   ,   .   ,   .   ,   .    ,   .   ,   .   ,   .   ,   .  
e||---------7---5\s\2--------------|--------------------------------|
B||-0*------------------3----------|-2---------------2---0----------|
G||-0*----------------------4---2--|-2-----------2---2---0-------0--|
D||--------------------------------|--------------------------------|
A||--------------------------------|-0-------0-------0-------0------|
D||-0-------0-------0-------0------|--------------------------------|

* omit 1st time through
       D
   ,   .   ,   .   ,   .   ,   .    ,   .   ,   .   ,   .   ,   .
e|--------------------------------|--------------------------------|
B|-0---------------3---3----------|-3-------3----------------------|
G|-0---2-----------2---2----------|-2-------2----------------------|
D|-----4-------4-----------4------|-----4-----------4-------0------|
A|-0-------0----------------------|--------------------------------|
D|--------------------------------|--------------------------------|

                                    A                           G
   ,   .   ,   .   ,   .   ,   .    ,   .   ,   .   ,   .   ,   .  
e|---------7---5\s\2--------------|--------------------------------|
B|---------------------3----------|-2---------------2-h-3-------3--|
G|-------------------------4---2--|-2-----------2---2-----------0--|
D|--------------------------------|--------------------------------|
A|--------------------------------|-0-------0-------0-------0------|
D|-0-------0-------0-------0------|--------------------------------|


   D
   ,   .   ,   .   ,   .   ,   .    ,   .   ,   .   ,   .   ,   .
e|--------------------------------|--------------------------------||
B|-3-----------3-----------3------|---------3-----------3----------||
G|-2-----------2-----------2------|---------2-----------2----------||
D|-4-----------4-----------4h5p4--|---------4-----------4----------||
A|-0-------0-----------0----------|-0---0-----------0-------0------||
D|--------------------------------|--------------------------------||
                                      (Repeat for Introduction only)

   D                                G                          G6
   ,   .   ,   .   ,   .   ,   .    ,   .   ,   .   ,   .   ,   .    
e|--------------------------------|--------------------------------|
B|-3---------------3--------------|-----------------3-----------0--|
G|-2-------2-----------2----------|---------0-----------0-------0--|
D|-4-----------4-----------4------|-----0-------0-----------0------|
A|--------------------------------|--------------------------------|
D|-0-------0-------0-------0------|-5-------5-------5-------5------|

   D                 
   ,   .   ,   .   ,   .   ,   .    ,   .   ,   .   ,   .   ,   .    
e|--------------------------------|--------------------------------|
B|-3---------------3-----------3--|-----------------3--------------|
G|-2-------2-----------4-p-2---2--|---------2-----------4-p-2------|
D|-4-----------4---------------4--|-------------4------------------|
A|--------------------------------|--------------------------------|
D|-0-------0-------0-------0------|-0-------0-------0-------0------|

                                    G                          G6
   ,   .   ,   .   ,   .   ,   .    ,   .   ,   .   ,   .   ,   .    
e|--------------------------------|--------------------------------|
B|-3---------------3--------------|-----------------3-----------0--|
G|-2-------2-----------2----------|---------0-----------0-------0--|
D|-4-----------4-----------4------|-----0-------0-----------0------|
A|--------------------------------|--------------------------------|
D|-0-------0-------0-------0------|-5-------5-------5-------5------|


   ,   .   ,   .   ,   .   ,   .    ,   .   ,   .   ,   .   ,   .    
e|--------------------------------|--------------------------------|
B|-3---------------3-----------3--|-----------------3--------------|
G|-2-------2-----------4-p-2---2--|---------2-----------4-p-2------|
D|-4-----------4---------------4--|-------------4------------------|
A|--------------------------------|--------------------------------|
D|-0-------0-------0-------0------|-0-------0-------0-------0------|


   ,   .   ,   .   ,   .   ,   .    ,   .   ,   .   ,   .   ,   .    
e|--------------------------------|--------------------------------|
B|-3---------------3-----------3--|-----------------3--------------|
G|-0-------0-----------0-------0--|---------0-----------0----------|
D|-0-----------0-----------0---0--|-------------0-----------0------|
A|--------------------------------|--------------------------------|
D|-5-------5-------5-------5------|-5-------5-------5-------5------|
   D                                A
   ,   .   ,   .   ,   .   ,   .    ,   .   ,   .   ,   .   ,   .    
e|--------------------------------|--------------------------------|
B|-7---------------7---5---3------|-2-------2h3p2-------2----------|
G|-7-----------7---7---6---4------|-2---------------4-------2------|
D|-0-------0-------0-------0------|-2------------------------------|
A|--------------------------------|-0-------0-------0-------0------|
D|--------------------------------|--------------------------------|

    G6          G                    A
   ,   .   ,   .   ,   .   ,   .    ,   .   ,   .   ,   .   ,   .    
e|--------------------------------|--------------------------------|
B|-0-----------3-------3----------|-----------------3-p-0---2------|
G|-0-----------0-------0----------|---------2----------------------|
D|-0-----------0-------0----------|-----2--------------------------|
A|--------------------------------|-0-------0-------0-------0------|
D|-5-------5-------5-------5------|--------------------------------|

   D                                Dsus4   D
   ,   .   ,   .   ,   .   ,   .    ,   .   ,   .   ,   .   ,   .    
e|---------------------2----------|-3---3-p-2----------------------|
B|-3-------------------3----------|-3---3-----------5-------3------|
G|-2-------2-----------2----------|-2---2-----------2-------2------|
D|-4-----------4-----------0---0--|--------------------------------|
A|--------------------------------|--------------------------------|
D|-0-------0-------0-------0------|-0-------0-------0-------0------|

   ,   .   ,   .   ,   .   ,   .    ,   .   ,   .   ,   .   ,   .    
e|--------------------------------|--------------------------------|
B|-0------------------------------|--------------------------------|
G|-0------------------------------|--------------------------------|
D|--------------------------------|--------------------------------|
A|--------------------------------|--------------------------------|
D|--------------------------------|--------------------------------|

Repeat from beginning for second verse

Solo
   D                                        G                   D
   ,   .   ,   .   ,   .   ,   .    ,   .   ,   .   ,   .   ,   .    
e|--------------------------------|--------------------------------|
B|-7---7---7---7-------7---7------|---------8---8---8---7---8-s-10-|
G|-7---7---7---7-------7---7------|---------9---9---9---7---9-s-11-|
D|--------------------------------|--------------------------------|
A|--------------------------------|--------------------------------|
D|-0-------0-------0-------0------|-0-------0-------0-------0------|


   ,   .   ,   .   ,   .   ,   .    ,   .   ,   .   ,   .   ,   .    
e|--------------------------------|--------------------------------|
B|-10----------10-----------------|-------------10----------10-----|
G|-11----------11-----------------|---------11----------11---------|
D|--------------------------------|--------------------------------|
A|--------------------------------|--------------------------------|
D|-0-------0-------0-------0------|-0-------0-------0-------0------|


                                             G                  D
   ,   .   ,   .   ,   .   ,   .    ,   .   ,   .   ,   .   ,   .    
e|--------------------------------|--------------------------------|
B|-10--10--10--10------10--10-----|---------12--12--12--10--12-s15-|
G|-11--11--11--11------11--11-----|---------12--12--12--11--12-s14-|
D|--------------------------------|--------------------------------|
A|--------------------------------|--------------------------------|
D|-0-------0-------0-------0------|-0--------0------0-------0------|


   ,   .   ,   .   ,   .   ,   .    ,   .   ,   .   ,   .   ,   .    
e|--------------------------------|-----14--14--14------14--sd-----|
B|-15----------15-----------------|-----15--15--15------15--sd-----|
G|-14----------14-----------------|--------------------------------|
D|--------------------------------|--------------------------------|
A|--------------------------------|--------------------------------|
D|-0-------0-------0-------0------|-0-------0-------0-------0------|


           G
   ,   .   ,   .   ,   .   ,   .    ,   .   ,   .   ,   .   ,   .    
e|--------------------------------|--------------------------------|
B|---------12------12-------------|-10--10--10--12----------12-----|
G|---------12------12-------------|-11--11--11--12----------12-----|
D|--------------------------------|--------------------------------|
A|--------------------------------|--------------------------------|
D|-0-------0-------0-------0------|-0-------0-------0--------0-----|


          Bm5                         C#m#5 
   ,   .   ,   .   ,   .   ,   .    ,   .   ,   .   ,   .   ,   .    
e|--------------------------------|---------------------9----------|
B|---------787-----7--------------|-------------10-----------------|
G|-------------9-------7----------|---------9----------------------|
D|-------------------------9---7--|-----11----------------------5--|
A|--------------------------------|-0-------0-------0-------0------|
D|-0-------0-------0-------0------|--------------------------------|

   D                               A                            G
   ,   .   ,   .   ,   .   ,   .    ,   .   ,   .   ,   .   ,   .  
e|---------7---5\s\2--------------|--------------------------------|
B|---------------------3----------|-2---------------2-h-3-------3--|
G|-------------------------4---2--|-2-----------2---2-----------0--|
D|--------------------------------|--------------------------------|
A|--------------------------------|-0-------0-------0-------0------|
D|-0-------0-------0-------0------|--------------------------------|

  
   D
   ,   .   ,   .   ,   .   ,   .    ,   .   ,   .   ,   .   ,   .
e|--------------------------------|--------------------------------|
B|-3-----------3-----------3------|---------3-----------3----------|
G|-2-----------2-----------2------|---------2-----------2----------|
D|-4-----------4-----------4h5p4--|---------4-----------4----------|
A|-0-------0-----------0----------|-0---0-----------0-------0------|
D|--------------------------------|--------------------------------|


Ending:
    D                                A                  G
    ,   .   ,   .   ,   .   ,   .    ,   .   ,   .   ,   .   ,   .  
e||---------7---5\s\2--------------|--------------------------------|
B||-0*------------------3----------|-2---------------2---0----------|
G||-0*----------------------4---2--|-2-----------2---2---0-------0--|
D||--------------------------------|--------------------------------|
A||--------------------------------|-0-------0-------0-------0------|
D||-0-------0-------0-------0------|--------------------------------|

* omit 1st time through






       D
   ,   .   ,   .   ,   .   ,   .    ,   .   ,   .   ,   .   ,   .
e|--------------------------------|--------------------------------|
B|-0---------------3---3----------|-3-------3----------------------|
G|-0---2-----------2---2----------|-2-------2----------------------|
D|-----4-------4-----------4------|-----4-----------4-------0------|
A|-0-------0----------------------|--------------------------------|
D|--------------------------------|--------------------------------|

                                   A                            G
   ,   .   ,   .   ,   .   ,   .    ,   .   ,   .   ,   .   ,   .  
e|---------7---5\s\2--------------|--------------------------------|
B|---------------------3----------|-2---------------2-h-3-------3--|
G|-------------------------4---2--|-2-----------2---2-----------0--|
D|--------------------------------|--------------------------------|
A|--------------------------------|-0-------0-------0-------0------|
D|-0-------0-------0-------0------|--------------------------------|

   D
   ,   .   ,   .   ,   .   ,   .    ,   .   ,   .   ,   .   ,   .
e|--------------------------------|--------------------------------||
B|-3-----------3-----------3------|---------3-----------3----------||
G|-2-----------2-----------2------|---------2-----------2----------||
D|-4-----------4-----------4h5p4--|---------4-----------4----------||
A|-0-------0-----------0----------|-0---0-----------0-------0------||
D|--------------------------------|--------------------------------||

                                     A                       G
    ,   .   ,   .   ,   .   ,   .    ,   .   ,   .   ,   .   ,   .  
e||---------7---5\s\2--------------|--------------------------------|
B||-0-------------------3----------|-2---------------2-h-3-------3--|
G||-0-----------------------4---2--|-2-----------2---2-----------0--|
D||--------------------------------|--------------------------------|
A||--------------------------------|-0-------0-------0-------0------|
D||-0-------0-------0-------0------|--------------------------------|

   D
   ,   .   ,   .   ,   .   ,   .    ,   .   ,   .   ,   .   ,   .
e|--------------------------------|--------------------------------||
B|-3-----------3-----------3------|---------3-----------3----------||
G|-2-----------2-----------2------|---------2-----------2----------||
D|-4-----------4-----------4h5p4--|---------4-----------4----------||
A|-0-------0-----------0----------|-0---0-----------0-------0------||
D|--------------------------------|--------------------------------||
                                                  (Repeat and Fade)   

Comments about this tab

No comments/corrections found. Add your own

Complimentary Christian Ringtones
Dadamobile and CGR have teamed up to bring your favorite Christian artists right to your phone. Sign up today and get 10 complementary ringtones!
Tab Country
Did you know CGR has a sister site w/ country guitar tabs? Well we do! Its called Tab Country. It has a great archive with a lot of country tabs.
Rockin Tabs
Are you looking for a site that has rock guitar tabs? Then Rockintabs.com is the place for you. It is a budding site with many rock guitar tabs. Submit your tab today.
Tab Gallery
Tab Gallery has a compilation of christian, rock, and country tabs all in one place. Come visit us.