Guitar Tabs
song title    band name

Join Us Today!

Don't strum alone...
be a part of the largest online Christian music community. Browse thousands of guitar tabs and chat w/ musicians like yourself.


It's Free!

This tab has not yet been rated for accuracy.Sorry, but you must be logged in to rate this tab.
Click here to log-in, or you can click here to register.
(Registration is free)

All songs owned by corresponding publishing company. If you make copies of any song on this website, be sure to report your usage to CCLI.
Submitted by: JonathanT

Dream Like Mine
by Bruce Cockburn
From "Nothing But A Burning Light"

Tabbed by Jonathan Tieszen and Steve Meger

Standard tuning

Chords:
Em7   0 2 2 0 3 x
Em    0 x x 12 12 12
D/E   0 x x 9 8 8
CI    8 x x 9 8 8  (thumb-x-x-2nd-index-index)
CII   8 x x 9 x 8  (thumb-x-x-3rd-x-2nd)
D5    x x 0 7 10 x
Em    0 x 9 9 8 7
C+9   x 3 2 0 3 0
D     x x 0 2 3 2
Dsus  x x 0 2 3 3
D+9   x x 0 2 3 0
CIII  x 3 2 0 1 0
G     3 2 0 0 3 3
D/F#  2 x 0 2 3 x

Intro:                Em7
   ,   .   ,   .   ,   .   ,   .   ,   .   ,   .   ,   .   ,   .    
e|-------------------------------|-------------------------------||
B|---------------------3---------|-3-----------3-----------------||
G|---------------------0---------|-0-----------0-----------------||
D|---------------------2---------|-2-----------2-----------------||
A|-------------------------------|-------------------------0-h-2-||
E|-0---0---0---0---0---0---0---0-|-0---0---0---0---0---0---------||
                                                       (repeat 5X)

Chorus:                                             EmII
    ,   .   ,   .   ,   .   ,   .    ,   .   ,   .   ,   .   ,   .  
e|-12*-----------------------------|-----------------------------7-|  
B|-12*------------------3----------|-3---------------0-------8-----|
G|-12*------------------0----------|-0-------------------9---------|
D|----------------------2----------|-2-----------------------------|
A|---------------------------------|-------------------------------|
E|--0---0---0---0---0---0---0---0--|-0---0---0---0---0---0---0---0-|
     *Harmonics
    Em                                D/E                    Em  D/E
     ,   .   ,   .   ,   .   ,   .   ,   .   ,   .   ,   .   ,   .    
e| |-12----------------------------|-10----------------------12--10-|
B| |-12----------------------------|-10----------------------12--10-|
G|*|-12----------------------------|-11----------------------12--11-|
D|*|-------------------------------|--------------------------------|
A| |-------------------------------|--------------------------------|
E| |-0---0---0---0---0---0---0---0-|-0---0---0---0---0---0---0---0--|





   CI                             (shift fingering) CII
   ,   .   ,   .   ,   .   ,   .   ,   .   ,   .   ,   .   ,   .    
e|-8-----------------------------|-----------------8---7---------|
B|-8-----------------------------|-------------------------10--8-|
G|-9-----------------------------|-----------------9---7---------|
D|-------------------------------|-------------------------------|
A|-------------------------------|-------------------------------|
E|-8---8---8---8---8---8---8---8-|-8---8---8---8---8---8---8---8-|
   D5                                   
   ,   .   ,   .   ,   .   ,   .   ,   .   ,   .   ,   .   ,   .    
e|-------------------------------|-------------------------------|
B|-10----------10----------10----|---------10br----8-------------|
G|-7-----------7-----------7-----|-------------------------9-----|
D|-0---0---0---0---0---0---0---0-|-0---0---0---0---0---0---0---0-|
A|-------------------------------|-------------------------------|
E|-------------------------------|-------------------------------|

                                   __________________________________
  EmII                            |1                                
   ,   .   ,   .   ,   .   ,   .  |  ,   .   ,   .   ,   .   ,   .    
e|--------------------------------|-----------------------------7--| |
B|---------------------8----------|-------------------------8------| |
G|-9-----------7-h-9---9---9---7-h|-9-------------------9----------|*|
D|-9-----------7-h-9-------9---7-h|-9---------------9--------------|*| 
A|--------------------------------|--------------------------------| |
E|-0---0---0---0---0---0---0---0--|-0---0---0---0---0---0---0---0--| |
  _______________________________
 |2                                     
 |  ,   .   ,   .   ,   .   ,   . 
e|-------------------------------|
B|---------------------8---------|
G|-9-------------------9---------|
D|-9-----------------------------|
A|-------------------------------|
E|-------------------------------|

Verse:
    C+9
     ,   .   ,   .   ,   .   ,   .   ,   .   ,   .   ,   .   ,   .    
e| |-------------0---------------0-|-------------0---------------0-|
B| |-------------3---------------3-|-------------3---------------3-|
G|*|---------0---------------------|---------0---------------------|
D|*|-----2-------------------------|-----2-------------------------|
A| |-3-----------------------3-----|-3-----------------------3-----|
E| |-------------------------------|-------------------------------|

  Em7
   ,   .   ,   .   ,   .   ,   .   ,   .   ,   .   ,   .   ,   .    
e|-------------0---------------0-|-------------0---------------0-| |
B|-------------3---------------3-|-------------3---------------3-| |
G|-------------0-----------------|-------------0-----------------|*|
D|---------2---------------------|---------2---------------------|*|
A|-----2-------------------------|-----2-------------------------| |
E|-0-----------------------0-----|-0-----------------------0-----| |
                                                                 
 

           D                         Dsus   D        D+9     D
   ,   .   ,   .   ,   .   ,   .   ,   .   ,   .   ,   .   ,   .    
e|---------2---2-------2---2-----|-3-------2-------0-------2-----|
B|---------3---3-------3---3-----|-3-------3-------3-------3-----|
G|---------2---2-------2---2-----|-2-------2-------2-------2-----|
D|-0---0-------0---0-----------0-|-----0-------0-------0-------0-|
A|-------------------------------|-------------------------------|
E|-------------------------------|-------------------------------|
 




                                 _________________________________
  CIII    G                      |1                           
   ,   .   ,   .   ,   .   ,   . | ,   .   ,   .   ,   .   ,   .   
e|-0-------3---------------------|-------------------------------| |
B|-1-------3-----------3---------|-3-----------3-----------------| |
G|-0-------0-----------0---------|-0-----------0-----------------|*|
D|-2-------0-----------0---------|-0-----------0-----------------|*|
A|-3-------2---------------------|-------------------------2---3-| |
E|---------3-------3-------3---3-|-3---3---3---3---3---3---------| |

  _______________________________
 |2               D/F#       
 | ,   .   ,   .   ,   .   ,   . 
e|-------------------------------|
B|-3-------------------3---------|
G|-0---------------2-------------|
D|-0---------------------------0-|
A|-------------------------------|
E|-3---3---3---3---2---2---2---2-|


          Em
     ,   .   ,   .   ,   .   ,   .   ,   .   ,   .   ,   .   ,   .    
e| |-------------------------------|-------------------------------|
B| |---------------------0---------|-----0-------------------------|
G|*|---------------------0---------|-----0-------------------------|
D|*|---------------------2---------|-----2-------------------------|
A| |-------------------------------|-------------------------0---2-|
E| |-0---0---0---0---0---0---0---0-|-0---0---0---0---0---3---------|
          
                                 _________________________________
   G                             |1               D/F#          
   ,   .   ,   .   ,   .   ,   . | ,   .   ,   .   ,   .   ,   .    
e|-------------------------------|--------------------------------| |
B|-------------------------3-----|---------------------3----------| |
G|-------------0-----------0-----|-----------------2--------------|*|
D|-0-----------0-----------0-----|-----------------------------0--|*|
A|-------------------------------|--------------------------------| |
E|-3---3---3---3---3---3---3---3-|-3---3---3---3---2---2---2---2--| |





  _______________________________
 |2               D/F#        
 | ,   .   ,   .   ,   .   ,   . 
e|-------------------------------|
B|---------3-----------3---------|
G|---------0-------2-------------|
D|---------0-------------------0-|
A|-------------------------------|
E|-3---3---3---3---2---2---2---2-|

 
   Em
   ,   .   ,   .   ,   .   ,   .   ,   .   ,   .   ,   .   ,   .    
e|-------------------------------|-------------------------------|
B|---------------------0---------|-----0-------------------------|
G|---------------------0---------|-----0-------------------------|
D|---------------------2---------|-----2-------------------------|
A|-------------------------------|-------------------------------|
E|-0---0---0---0---0---0---0---0-|-0---0---0---0---0---0---0---0-|



                       Em7                           EmII
    ,   .   ,   .   ,   .   ,   .   ,   .   ,   .   ,   .   ,   .    
e|-12*----------------------------|-----------------------------7-||
B|-12*------------------3---------|-3---------------0-------8-----||
G|-12*------------------0---------|-0-------------------9---------||
D|----------------------2---------|-2-----------------------------||
A|--------------------------------|-------------------------------||
E|--0---0---0---0---0---0---0---0-|-0---0---0---0---0---0---0---0-|| 

Repeat song from chorus 
Second time through, proceed to ending, as follows:         


    Em                                D/E                Em  D/E
     ,   .   ,   .   ,   .   ,   .    ,   .   ,   .   ,   .   ,   .  
e| |-12----------------------------|-10------------------12--10----|
B| |-12----------------------------|-10------------------12--10----|
G|*|-12----------------------------|-11------------------12--11----|
D|*|-------------------------------|-------------------------------|
A| |-------------------------------|-------------------------------|
E| |-0---0---0---0---0---0---0---0-|-0---0---0---0---0---0---0---0-|

   CI                              (shift fingering) CII
   ,   .   ,   .   ,   .   ,   .   ,   .   ,   .   ,   .   ,   .    
e|-8-----------------------------|-----------------8---7---------|
B|-8-----------------------------|-------------------------10--8-|
G|-9-----------------------------|-----------------9---7---------|
D|-------------------------------|-------------------------------|
A|-------------------------------|-------------------------------|
E|-8---8---8---8---8---8---8---8-|-8---8---8---8---8---8---8---8-|





                                 ________________________________
   D5                            |1      
   ,   .   ,   .   ,   .   ,   . | ,   .   ,   .   ,   .   ,   .    
e|-------------------------------|-------------------------------|
B|-10----------10----------10----|----------------10b--10--8-----|
G|-7-----------7-----------7-----|-----------------------------9-|
D|-0---0---0---0---0---0---0---0-|-0---0---0---0---0---0---0---0-|
A|-------------------------------|-------------------------------|
E|-------------------------------|-------------------------------|
  __________________________________________________________________
   EmII                                                          
   ,   .   ,   .   ,   .   ,   .    ,   .   ,   .   ,   .   ,   .  
e|--------------------------------|-----------------------------7-| |
B|-8------------------------------|-------------------------8-----| |
G|-----9-----------9-p-7-------7h9|---------9-----------9---------|*|
D|-------------------------9---9--|---------9-------9-------------|*|
A|--------------------------------|-------------------------------| |
E|-0---0---0---0---0---0---0---0--|-0---0---0---0---0---0---0---0-| |


  ________________________________________________________________
 |2.                                 EmII
 | ,   .   ,   .   ,   .   ,   .   ,   .   ,   .   ,   .   ,   .    
e|-----10------------------------|--------------------------------|
B|--------b10r-8---10------8-----|--------------------------------|
G|---------------------9---------|-----7-----------7---7-------7--|
D|-0---0---0---0---0---0---0---0-|-7s9---------9---7h9-7h9-----7h9|
A|-------------------------------|--------------------------------|
E|-------------------------------|-0---0---0---0---0---0---0---0--| 
 
 ________________________________
                              
   ,   .   ,   .   ,   .   ,   .    
e|-----------------------------7-| |
B|-------------------------8-----| |
G|---------------------9---------|*|
D|-----------------9-------------|*|
A|-------------------------------| |
E|-0---0---0---0---0---0---0---0-| |


  ________________________________________________________________
 |3                                  EmII
 |  ,   .   ,   .   ,   .   ,   .   ,   .   ,   .   ,   .   ,   .    
e|--------------------------------|-------------------------------|
B|-b10r8-------10br8----8---------|-------------------------------|
G|------------------9-------9p7---|-9-------9-----------9-------9-|
D|--0---0---0---0---0---0-------9-|-------------------------------|
A|--------------------------------|-------------------------------|
E|--------------------------------|-0---0---0---0---0---0---0---0-|







  _______________________________
                 EmII         
   ,   .   ,   .   ,   .   ,   .   
e|-----------------------------7-| |
B|-------------------------8-----| |
G|---------9-----------9---------|*|
D|-----------------9-------------|*|
A|-------------------------------| |
E|-0---0---0---0---0---0---0---0-| |


 __________________________________________________________________
 |4                                  EmII
 | ,   .   ,   .   ,   .   ,   .   ,   .   ,   .   ,   .   ,   .    
e|--------------------------------|--------------------------------|
B|-s10--10--8-------8---7---------|-8-------8-------7---8---7------|
G|-s11--11--9-------9---7---------|-9-------9-------7---9---7---7--|
D|--0---0---0---0---0---0---0---0-|--------------------------------|
A|--------------------------------|--------------------------------|
E|--------------------------------|-0---0---0---0---0---0---0---0--|
  _______________________________  
                              
   ,   .   ,   .   ,   .   ,   . |     
e|-----------------------------7-|
B|-7-h-8---8---------------8-----|
G|-7-h-9---9-----------9---------|
D|-----------------9-------------|
A|-------------------------------|
E|-0---0---0---0---0---0---0---0-| repeat and fade out

Comments about this tab

No comments/corrections found. Add your own

Complimentary Christian Ringtones
Dadamobile and CGR have teamed up to bring your favorite Christian artists right to your phone. Sign up today and get 10 complementary ringtones!
Tab Country
Did you know CGR has a sister site w/ country guitar tabs? Well we do! Its called Tab Country. It has a great archive with a lot of country tabs.
Rockin Tabs
Are you looking for a site that has rock guitar tabs? Then Rockintabs.com is the place for you. It is a budding site with many rock guitar tabs. Submit your tab today.
Tab Gallery
Tab Gallery has a compilation of christian, rock, and country tabs all in one place. Come visit us.