Guitar Tabs
song title    band name

Join Us Today!

Don't strum alone...
be a part of the largest online Christian music community. Browse thousands of guitar tabs and chat w/ musicians like yourself.


It's Free!

This tab has not yet been rated for accuracy.Sorry, but you must be logged in to rate this tab.
Click here to log-in, or you can click here to register.
(Registration is free)

All songs owned by corresponding publishing company. If you make copies of any song on this website, be sure to report your usage to CCLI.
Submitted by: JonathanT

Mistress of Storms
By Bruce Cockburn
From “The Charity of Night”

Tabbed by Jonathan Tieszen and Steve Meger.

Dropped D Tuning (DADGBe)
Aeolian mode (based on F major scale)
Long Delay (set to a dotted quarter note, with a couple repeats)

Chords:
F5		3 3 3 5 x x
Eb5		1 1 1 3 x x
Dm		0 0 3 x x x
Bb5		8 8 8 10 x x
G5		5 5 5 7 x x
 play the following chords with pinkie on 2nd string
D7sus+9	0 x 12 12 13 0
Dm#5+9	0 x 8 10 10 0
Dm7sus+9	0 x 5 5 6 0
G7b5		0 x 5 6 5 0
Dadd9m	0 x 3 2 3 0


Part I

   F5                              
   ,   .   ,   .   ,   .   ,   .   ,   .   ,   .   ,   .   ,   .  
||-------------------------------|-------------------------------|
||-------------------------------|-------------------------------|
|*-5-----------5-----------------|-0-----------0-----------------|
|*-----3---------------3---------|-----5---------------5---------|
||--------(3)--------------------|--------(3)--------------------|
||-3-------3-------3-------3-----|-3-------3-------3-------3-----|

  Eb5                          
  ,   .   ,   .   ,   .   ,   .   ,   .   ,   .   ,   .   ,   .  
|-------------------------------|-------------------------------|
|-------------------------------|-------------------------------|
|-3-----------3-----------------|-0-----------0-----------------|
|-----1---------------1---------|-----3---------------3---------|
|--------(1)--------------------|--------(1)--------------------|
|-1-------1-------1-------1-----|-1-------1-------1-------1-----|

  Dm
  ,   .   ,   .   ,   .   ,   .   ,   .   ,   .   ,   .   ,   .  
|-------------------------------|-------------------------------|
|-------------------------------|-------------------------------|
|-2h3p2p0-----------------------|-------------------------------|
|---------3---------------------|-----3-------------------------|
|-------------------------------|-----0-------------------------|
|-0-------0-------0-------0-----|-0-------0-------0-------0-----|
 



 ,   .   ,   .   ,   .   ,   .   ,   .   ,   .   ,   .   ,   .  
|-------------------------------|-------------------------------||
|-------------------------------|-------------------------------||
|-------------------------------|-------------------------------*|
|-3-----------3---3-----------3-|---------3-------3-------------*|
|-0-----------0---0-----------0-|---------0-------0-------------||
|-0-------0-------0-------0-----|-0-------0-------0-------0-----||

Part II

  Bb5
   ,   .   ,   .   ,   .   ,   .   ,   .   ,   .   ,   .   ,   .  
||-------------------------------|-------------------------------|
||-------------------------------|-------------------------------|
|*-10----------10----------------|-------------0-----------------|
|*-----8---------------8---------|---------10—---------10--------|
||--------(8)-----------------(8)|-------------------------------|
||-8-------8-------8-------8-----|-8-------8-------8-------8-----|

  G5
  ,   .   ,   .   ,   .   ,   .   ,   .   ,   .   ,   .   ,   .  
|-------------------------------|-------------------------------|
|-------------------------------|-------------------------------|
|-7-----------7-----------------|-------------0-----------------|
|-----5---------------5---------|---------7-----------7---------|
|--------(5)-----------------(5)|-------------------------------|
|-5-------5-------5-------5-----|-5-------5-------5-------5-----|

  Eb5                            
  ,   .   ,   .   ,   .   ,   .   ,   .   ,   .   ,   .   ,   .  
|-------------------------------|-------------------------------|
|-------------------------------|-------------------------------|
|-3-----------3-----------------|-------------0-----------------|
|-----1---------------1---------|---------3-----------3---------|
|--------(1)-----------------(1)|-------------------------------|
|-1-------1-------1-------1-----|-1-------1-------1--------1----|


  ,   .   ,   .   ,   .   ,   .   ,   .   ,   .   ,   .   ,   .  
|-------------------------------|-------------------------------||
|-------------------------------|-------------------------------||
|-3-----------3-----------------|-------------0-----------------*|
|-----1---------------1---------|---------3-----------3---------*|
|--------(1)-----------------(1)|-------------------------------||
|-1-------1-------1-------1-----|-1-------1-------1--------1----||


Second time through jump to Part IV
Part III
  Dm
  ,   .   ,   .   ,   .   ,   .   ,   .   ,   .   ,   .   ,   .  
|-------------------------------|-------------------------------|
|-------------------------------|-------------------------------|
|-2-----------------------------|---------------------2---3p2p0-|
|-------------------------------|-------------------------------|
|-------------------------------|-------------------------------|
|-0-------0-------0-------0-----|-0-------0-------0-------0-----|

  ,   .   ,   .   ,   .   ,   .   ,   .   ,   .   ,   .   ,   .  
|-------------------------------|-------------------------------|
|-------------------------------|-------------------------------|
|-2-----------------------------|---------------------2---3-p-2-|
|-------------------------------|-------------------------------|
|-------------------------------|-------------------------------|
|-0-------0-------0-------0-----|-0-------0-------0-------0-----|


  ,   .   ,   .   ,   .   ,   .   ,   .   ,   .   ,   .   ,   .  
|-------------------------------|-------------------------------|
|-------------------------------|-------------------------------|
|-2-----------------------------|-------------------------2---0-|
|-------------------------------|-------------0-h-3-------------|
|-------------------------------|-------------------------------|
|-0-------0-------0-------0-----|-0-------0-------0-------0-----|


  ,   .   ,   .   ,   .   ,   .   ,   .   ,   .   ,   .   ,   .  
|-------------------------------|-------------------------------|
|-------------------------------|-------------------------------|
|-------------------------------|-------------------------------|
|-3-----------------------------|-------------------------------|
|-------------------------------|-------------------------------|
|-0-------0-------0-------0-----|-0-------0-------0-------0-----|

Repeat Parts I and II

Part IV
 Dm
  ,   .   ,   .   ,   .   ,   .   ,   .   ,   .   ,   .   ,   .  
|-------------------------------|-------------------------------|
|-------------------------------|-------------------------------|
|-2-----------------------------|-------------------------------|
|-------------------------------|---------------------2h3p2h3…~~|
|-------------------------------|-------------------------------|
|-0-------0-------0-------0-----|-0-------0-------0--------0----|
                                           trill continuously~~~

  ,   .   ,   .   ,   .   ,   .   ,   .   ,   .   ,   .   ,   .  
|-------------------------------|-------------------------------|
|-------------------------------|-------------------------------|
|-------------------------------|-------------------------------|
|~~~~~~~~~~~~~~~~~~~~~~~~~~~~~~~|~~~~~~~~~~~~~~~~~~~~~~~~~~~~~~~|
|-------------------------------|-------------------------------|
|-0-------0-------0-------0-----|-0-------0-------0-------0-----|
~~~~~~~~~~~~~~~~~~~~~~~~~~~~~~~~~~~~~~~~~~~~~~~~~~~~~~~~~~~~~~~~

  ,   .   ,   .   ,   .   ,   .   ,   .   ,   .   ,   .   ,   .  
|-------------------------------|-------------------------------|
|-------------------------------|-------------------------------|
|-5h8p5h8p5…~~~~~~~~~~~~~~~~~~~~|~~~~~~~~~~~~~~~~~~~~~~~~~~~~~~~|
|-------------------------------|-------------------------------|
|-------------------------------|-------------------------------|
|-0-------0-------0-------0-----|-0-------0-------0-------0-----|
  trill continuously ~~~~~~~~~~~~~~~~~~~~~~~~~~~~~~~~~~~~~~~~~~~

  ,   .   ,   .   ,   .   ,   .   ,   .   ,   .   ,   .   ,   .  
|-------------------------------|-------------------------------|
|-------------------------------|-------------------------------|
|~~~~~~~~~~~~~~~~~~~~~~~~~~~~~~~|~~~~~~~~~~~~~~~~~~~~~~~~~~~~~--|
|-------------------------------|-----------------------------12|
|-------------------------------|-------------------------------|
|-0-------0-------0-------0-----|-0-------0-------0-------0-----|
 ~~~~~~~~~~~~~~~~~~~~~~~~~~~~~~~~~~~~~~~~~~~~~~~~~~~~~~~~~~~~~~


Part V (with quartal harmony chords)
  D7sus+9
  ,   .   ,   .   ,   .   ,   .   ,   .   ,   .   ,   .   ,   .  
|-------------0-----------------|-------------------------------|
|-13----------13------13--------|-------------------------------|
|-12----------12------12--------|-------------------------------|
|-----12--------------12--------|-----------------------------8-|
|-------------------------------|-------------------------------|
|-0-------0-------0-------0-----|-0-------0-------0-------0-----|

  Dm#5+9
  ,   .   ,   .   ,   .   ,   .   ,   .   ,   .   ,   .   ,   .  
|-------------0-----------------|-------------------------------|
|-10----------10------10--------|-------------------------------|
|-10----------10------10--------|-------------------------------|
|-----8---------------8---------|-----------------------------5-|
|-------------------------------|-------------------------------|
|-0-------0-------0-------0-----|-0-------0-------0-------0-----|

  Dm7sus+9
  ,   .   ,   .   ,   .   ,   .   ,   .   ,   .   ,   .   ,   .  
|-------------0-----------------|-------------------------------|
|-6-----------6-------6---------|-------------------------------|
|-5-----------5-------5---------|-------------------------------|
|-----5---------------5---------|-----------------------------8-|
|-------------------------------|-------------------------------|
|-0-------0-------0-------0-----|-0-------0-------0-------0-----|

   Dm#5+9
  ,   .   ,   .   ,   .   ,   .   ,   .   ,   .   ,   .   ,   .  
|-------------0-----------------|-------------------------------|
|-10----------10------10--------|-------------------------------|
|-10----------10------10--------|-------------------------------|
|-----8---------------8---------|-----------------------------12|
|-------------------------------|-------------------------------|
|-0-------0-------0-------0-----|-0-------0-------0-------0-----|

  D7sus+9
  ,   .   ,   .   ,   .   ,   .   ,   .   ,   .   ,   .   ,   .  
|-------------0-----------------|-------------------------------|
|-13----------13------13--------|-------------------------------|
|-12----------12------12--------|-------------------------------|
|-----12--------------12--------|-----------------------------8-|
|-------------------------------|-------------------------------|
|-0-------0-------0-------0-----|-0-------0-------0-------0-----|



   Dm#5+9
  ,   .   ,   .   ,   .   ,   .   ,   .   ,   .   ,   .   ,   .  
|-------------0-----------------|-----------------------------0-|
|-10----------10------10--------|-------------------------------|
|-10----------10------10--------|-------------------------------|
|-----8---------------8---------|-------------------------------|
|-------------------------------|-------------------------------|
|-0-------0-------0-------0-----|-0-------0-------0-------0-----|


  G7b5
  ,   .   ,   .   ,   .   ,   .   ,   .   ,   .   ,   .   ,   .  
|-------------------------------|-----------------------------0-|
|-6-----------------------------|-------------------------------|
|-----6-------------------------|-------------------------------|
|---------5---------------------|-------------------------------|
|-------------------------------|-------------------------------|
|-0-------0-------0-------0-----|-0-------0-------0-------0-----|

  Dadd9m                      **
  ,   .   ,   .   ,   .   ,   .   ,   .   ,   .   ,   .   ,   .  
|-------------------------------|-------------------------------|
|-3-----------------------------|-------------------------------|
|-----2-------------------------|-------------------------------|
|---------3---------------------|-3---------------------------2h|
|-------------------------------|-------------------------------|
|-0-------0------0--------0-----|-0-------0-------0-------0-----|

Part VI (Solo – based on D Aeolian mode and blues riffs)

  ,   .   ,   .   ,   .   ,   .   ,   .   ,   .   ,   .   ,   .  
|-------------------------------|-------------------------------|
|-------------------------------|-------------------------------|
|-------------------------------|-------------------------------|
|-3-----------------------------|-----2h3p2p0-----2-p-0---0-----|
|-------------------------------|-------------------------------|
|-0-------0-------0-------0-----|-0-------0-------0-------0-----|


  ,   .   ,   .   ,   .   ,   .   ,   .   ,   .   ,   .   ,   .  
|-------------------------------|-------------------------------|
|-------------------------------|-------------------------------|
|-------------------------------|-------------------------------|
|-------------------------------|-------------------------------|
|-------------------------------|---------------------3-h-5---3h|
|-0-------0-------0-------0-----|-0-------0-------0-------0-----|


  ,   .   ,   .   ,   .   ,   .   ,   .   ,   .   ,   .   ,   .  
|-------------------------------|-------------------------------|
|-------------------------------|-------------------------------|
|-------------------------------|-------------------------------|
|-------------------------------|-------------------------------|
|-5-----------------------------|-------------------------------|
|-0-------0-------0-------0-----|-0-------0-------0-------0-----|


  ,   .   ,   .   ,   .   ,   .   ,   .   ,   .   ,   .   ,   .  
|-------------------------------|-------------------------------|
|-------------------------------|-------------------------------|
|-------------------------------|-----5-------------------------|
|-----------------------------3-|-5s7---------------------------|
|---------------------3---5-----|-------------------------------|
|-0-------0-------0-------0-----|-0-------0-------0-------0-----|


  ,   .   ,   .   ,   .   ,   .   ,   .   ,   .   ,   .   ,   .  
|-------------------------------|-------------------------------|
|-------------------------------|---------6-p-5-----------------|
|-----------------------------5-|-7---5-----------5-------5s7---|
|-------------------------------|---------------------7---------|
|-------------------------------|-------------------------------|
|-0-------0-------0-------0-----|-0-------0-------0-------0-----|


  ,   .   ,   .   ,   .   ,   .   ,   .   ,   .   ,   .   ,   .  
|-------------------------------|-----------------5-----------5-|
|-----------------------------5-|h5p6-----5-h-8-------5-h-8-----|
|-----7-------------------------|-----7-------------------------|
|-------------------------------|-------------------------------|
|-------------------------------|-------------------------------|
|-0-------0-------0-------0-----|-0-------0-------0-------0-----|


  ,   .   ,   .   ,   .   ,   .   ,   .   ,   .   ,   .   ,   .  
|---------5---------------------|-------------------------------|
|-8---5-------6-p-5-----------5-|-------------------------------|
|---------------------5---7-----|-5-----------5-----------------|
|-------------------------------|-----7---5-------7-------5-----|
|-------------------------------|---------------------8-------5-|
|-0-------0-------0-------0-----|-0-------0-------0-------0-----|


  ,   .   ,   .   ,   .   ,   .   ,   .   ,   .   ,   .   ,   .  
|-------------------------------|-------------------------------|
|-------------------------------|-------------------------------|
|-------------------------------|-------------------------7-p-5-|
|-------------------------------|-------------5---7-p-5---------|
|-8-----------------------------|-----7---8---------------------|
|-0-------0-------0-------0-----|-0-------0-------0-------0-----|


  ,   .   ,   .   ,   .   ,   .   ,   .   ,   .   ,   .   ,   .  
|-------------------------------|---------------------8---------|
|-----6---8---8---6---8-------6-|-8-------10-b11r10-------10b-8-|
|-7-----------------------------|-------------------------------|
|-------------------------------|-------------------------------|
|-------------------------------|-------------------------------|
|-0-------0-------0-------0-----|-0-------0-------0-------0-----|




 
  ,   .   ,   .   ,   .   ,   .   ,   .   ,   .   ,   .   ,   .  
|-------------------------------|-------------------------------|
|-10------8---8-------8---------|---------8-----------8---------|
|-----10----------10------10-p-9|-9---10--9-----------9---------|
|-------------------------------|-------------------------------|
|-------------------------------|-------------------------------|
|-0-------0-------0-------0-----|-0-------0-------0-------0-----|


  ,   .   ,   .   ,   .   ,   .   ,   .   ,   .   ,   .   ,   .  
|-------------------------------|-------------------------------|
|---------------------10--8-s-6-|-5-----------5-----------------|
|---------------------10--9-s-7-|-5-----------5---7-s-5---5---5-|
|-------------------------------|-----------------7-s-5---5---5-|
|-------------------------------|-------------------------------|
|-0-------0-------0-------0-----|-0---i----0-------0-------0-----|


  ,   .   ,   .   ,   .   ,   .   ,   .   ,   .   ,   .   ,   .  
|-------------------------------|-------------------------------|
|-------------------------------|-----------------10-8br------8-|
|---------5---------------------|-----9---9h10p9----------10----|
|---------5---------------------|-------------------------------|
|-------------------------------|-------------------------------|
|-0-------0-------0-------0-----|-0-------0-------0-------0-----|


  ,   .   ,   .   ,   .   ,   .   ,   .   ,   .   ,   .   ,   .  
|-------------------------------|---------------------8---------|
|---------8---8---8-------------|-------------------------10brp8|
|---------------------10--10--10|-----9-------9-----------------|
|-------------------------------|-------------------------------|
|-------------------------------|-------------------------------|
|-0-------0-------0-------0-----|-0-------0-------0-------0-----|


  ,   .   ,   .   ,   .   ,   .   ,   .   ,   .   ,   .   ,   .  
|-------------------------------|-------------------------------|
|-11--8-------------------------|-------------------------------|
|---------10p9p7--9-------7---9-|-------------------------------|
|---------------------10--------|-10--7-------10--7---8-------8-|
|-------------------------------|-------------------------------|
|-0-------0-------0-------0-----|-0-------0-------0-------0-----|


  ,   .   ,   .   ,   .   ,   .   ,   .   ,   .   ,   .   ,   .  
|-------------------------------|-------------------------------|
|-------------------------------|---------8-------10—8s10~~~~~~~|
|-------------------------9---7-|-10--9-------9-----------------|
|-----8---8p7-----8---7---------|-------------------------------|
|-------------10----------------|-------------------------------|
|-0-------0-------0-------0-----|-0-------0-------0-------0-----|





  ,   .   ,   .   ,   .   ,   .   ,   .   ,   .   ,   .   ,   .  
|---------------------12p-8-----|-12p-8-------12----------------|
|-----------------------------8-|---------8---------------------|
|-------------------------------|-------------------------------|
|-------------------------------|-------------------------------|
|-------------------------------|-------------------------------|
|-0-------0-------0-------0-----|-0-------0-------0-------0-----|


  ,   .   ,   .   ,   .   ,   .   ,   .   ,   .   ,   .   ,   .  
|-----12------------------------|-13----------13----------13----|
|-----------------------------10|-----10h-11------10----------10|
|-------------------------------|-------------------------------|
|-------------------------------|-------------------------------|
|-------------------------------|-------------------------------|
|-0-------0-------0-------0-----|-0-------0-------0-------0-----|


  ,   .   ,   .   ,   .   ,   .   ,   .   ,   .   ,   .   ,   .  
|-----13----------13------------|---------13----------13--------|
|---------10--10----------------|-10b---------10----------10----|
|-------------------------------|-------------------------------|
|-------------------------------|-------------------------------|
|-------------------------------|-------------------------------|
|-0-------0-------0-------0-----|-0-------0-------0-------0-----|
                                  hold bend---------------------

  ,   .   ,   .   ,   .   ,   .   ,   .   ,   .   ,   .   ,   .  
|-13----------13--------------13|-------------------------------|
|-----10--------------10brb-----|-10br----10--------------------|
|-------------------------------|-----12------12--10--9---10--9-|
|-------------------------------|-------------------------------|
|-------------------------------|-------------------------------|
|-0-------0-------0-------0-----|-0-------0-------0-------0-----|
 ---------------|

  ,   .   ,   .   ,   .   ,   .   ,   .   ,   .   ,   .   ,   .  
|-------------------------------|-------------------------------|
|-------------------------------|---------------------10—10---13|
|-10~~~~------10~~~~------------|-------------10—10s12----------|
|-------------------------------|-----10—10s12------------------|
|-------------------------------|-------------------------------|
|-0-------0-------0-------0-----|-0-------0-------0-------0-----|


  ,   .   ,   .   ,   .   ,   .   ,   .   ,   .   ,   .   ,   .  
|-10----------10--10--10--------|-------------------------------|
|-----10--13------13b-----13br10|---------10----------10—11s1313|
|-------------------------------|-10--12------10--12-----12s1414|
|-------------------------------|-------------------------------|
|-------------------------------|-------------------------------|
|-0-------0-------0-------0-----|-0-------0-------0-------0-----|





  ,   .   ,   .   ,   .   ,   .   ,   .   ,   .   ,   .   ,   .  
|-------------------------------|-------------------------------|
|-----11------15------13------10|-10/11-------11------11--------|
|-----12------15------14------10|-10/12-------12------12--------|
|-------------------------------|-------------------------------|
|-------------------------------|-------------------------------|
|-0-------0-------0-------0-----|-0-------0-------0-------0-----|


  ,   .   ,   .   ,   .   ,   .   ,   .   ,   .   ,   .   ,   .  
|-------------------------------|-------------------------------|
|---—11—-11s10----10--10—-------|/8---------------------------6-|
|---—12--12s10----10--10--------|/9---\---7-----------7---------|
|-------------------------------|-------------------------------|
|-------------------------------|-------------------------------|
|-0-------0-------0-------0-----|-0-------0-------0-------0-----|


  ,   .   ,   .   ,   .   ,   .   ,   .   ,   .   ,   .   ,   .  
|-------------------------8-----|-8-\-6-------6-\-5-------5-----|
|-----6-------6-------8/10----10|---------8-----------6-------6-|
|-7-----------------------------|-------------------------------|
|-------------------------------|-------------------------------|
|-------------------------------|-------------------------------|
|-0-------0-------0-------0-----|-0-------0-------0-------0-----|


  ,   .   ,   .   ,   .   ,   .   ,   .   ,   .   ,   .   ,   .  
|-------------------------------|-------------------------------|
|-------------------------5-----|-5—h6p5------------------------|
|-5---------------5-h-7-------7-|---------7-p-5-----------5-----|
|-------------------------------|-----------------7-p-5-------7-|
|-------------------------------|-------------------------------|
|-0-------0-------0-------0-----|-0-------0-------0-------0-----|


  ,   .   ,   .   ,   .   ,   .   ,   .   ,   .   ,   .   ,   .  
|-------------------------------|-----------------------------5-|
|-------------------------------|---------5-------6---6---5-----|
|-----------------------------5-|-7---5-------7-----------------|
|-----5-----------5---7---8-----|-------------------------------|
|-8-------5---8-----------------|-------------------------------|
|-0-------0-------0-------0-----|-0-------0-------0-------0-----|


  ,   .   ,   .   ,   .   ,   .   ,   .   ,   .   ,   .   ,   .  
|---------5---------------5-----|-----5-------------------5-----|
|-8-p-5-------6-p-5-----------8-|-6-------6-p-5---------------6h|
|-------------------------------|-----------------7-p-5---------|
|-------------------------------|-------------------------------|
|-------------------------------|-------------------------------|
|-0-------0-------0-------0-----|-0-------0-------0-------0-----|





  ,   .   ,   .   ,   .   ,   .   ,   .   ,   .   ,   .   ,   .  
|-----5-------------------------|-5---6-------6---------------6-|
|-8-----------5-h-6-p-5---------|-------------------------------|
|-------------------------7-p-5-|---------7-----------7-------7-|
|-------------------------------|-------------------------------|
|-------------------------------|-------------------------------|
|-0-------0-------0-------0-----|-0-------0-------0-------0-----|


  ,   .   ,   .   ,   .   ,   .   ,   .   ,   .   ,   .   ,   .  
|-----5-------3-------2-------5-|-----3---1---0---1---1---0-----|
|-------------------------------|-----------------------------3-|
|-----5-------3-------1-------5-|-----3---2---0---2---2---0-----|
|-------------------------------|-----------------------------3-|
|-------------------------------|-------------------------------|
|-0-------0-------0-------0-----|-0-------0-------0-------0-----|


  ,   .   ,   .   ,   .   ,   .   ,   .   ,   .   ,   .   ,   .  
|-------------------------------|-------------------------------|
|-----1-------3-----------------|-------------------------------|
|---------------------5-------5-|-5-\-3-------3-----------------|
|-----2-------3-----------------|-------------------------------|
|---------------------7-------7-|-7-\-5-------5-------5---------|
|-0-------0-------0-------0-----|-0-------0-------0-------0-----|


  ,   .   ,   .   ,   .   ,   .   ,   .   ,   .   ,   .   ,   .  
|-------------------------------|-------------------------------|
|-------------------------------|-------------------------------|
|---------3\2-0---2-p-0---------|-0-----------------------------|
|-------------------------3---2-|-----3---2---0-----------------|
|-------------------------------|-------------------------------|
|-0-------0-------0-------0-----|-0-------0-------0-------0-----|


  ,   .   ,   .   ,   .   ,   .   ,   .   ,   .   ,   .   ,   .  
|-------------------------------|-------------------------------|
|-------------------------------|-------------------------------|
|-------------------------------|-------------2-----------------|
|-------------------------------|-------------0-----------------|
|-------------------------------|-------------------------------|
|-0-------0-------0-------0-----|-0-------0-------0-------0-----|


  ,   .   ,   .   ,   .   ,   .   ,   .   ,   .   ,   .   ,   .  
|-------------------------------|-------------------------------|
|-------------------------------|-------------------------------|
|-------------0-------2-------2-|-2-----------2-------2---2---0-|
|-------------2-------0-------0-|-0-----------3-------3---3---0-|
|-------------------------------|-------------------------------|
|-0-------0-------0-------0-----|-0-------0-------0-------0-----|





  ,   .   ,   .   ,   .   ,   .   ,   .   ,   .   ,   .   ,   .  
|-------------------------------|-------------------------------|
|-------------------------------|-------------------------------|
|-2-----------5-------5-------5-|-----5-----------5-------------|
|-3-----------5-------5-------7-|-----5-h-7-------5-h-7---5h7p5…|
|-------------------------------|-------------------------------|
|-0-------0-------0-------0-----|-0-------0-------0-------0-----|
                                                         trill~~

  ,   .   ,   .   ,   .   ,   .    
|-------------------------------|
|-------------------------------|
|-------------------------------|
|-------------------------------|
|-------------------------------|
|-0-------0-------0-------0-----|
 -------------------------------|  

Go to Part V, play through twice, then ad lib 16 bars of variations on a Dm
chord

Return to beginning, play as first time through, end at **

Comments about this tab

No comments/corrections found. Add your own

Complimentary Christian Ringtones
Dadamobile and CGR have teamed up to bring your favorite Christian artists right to your phone. Sign up today and get 10 complementary ringtones!
Tab Country
Did you know CGR has a sister site w/ country guitar tabs? Well we do! Its called Tab Country. It has a great archive with a lot of country tabs.
Rockin Tabs
Are you looking for a site that has rock guitar tabs? Then Rockintabs.com is the place for you. It is a budding site with many rock guitar tabs. Submit your tab today.
Tab Gallery
Tab Gallery has a compilation of christian, rock, and country tabs all in one place. Come visit us.