Guitar Tabs
song title    band name

Join Us Today!

Don't strum alone...
be a part of the largest online Christian music community. Browse thousands of guitar tabs and chat w/ musicians like yourself.


It's Free!

Five Iron Frenzy - One Girl Army

This tab has been rated a 5.00 out of 5 for accuracy. (1 vote)Sorry, but you must be logged in to rate this tab.
Click here to log-in, or you can click here to register.
(Registration is free)

All songs owned by corresponding publishing company. If you make copies of any song on this website, be sure to report your usage to CCLI.
Five Iron Frenzy
One Girl Army
Live Album
5min. walk records

intro-guitar1               intro-guitar2
                   
A...f...D...e                A...f...D...e
A...f...D...e       (octives)A...f...D...g#  
A...G...F...D...e            A...G...F...D...e

(palm mute this part)

A...f...D...e
A...f...D...e

(let it ring now)
A...G...F...D...e

(now the song starts with 4 beats from Chaka)

AA..AA

VERSE:

riff 1
when there is a number then x...that means thats how many times
you play that note
e-------------------------------------------------
B-------------------------------------------------
G-------------------------------------------------
D-*7(4x)--10--7-----------------------------------
A---------------*7(4x)--10--7--------------------
E-------------------------------------------------
repeat 2x (* means palm mute that note)
riff 2
e-------------------------------------------------
B-------------------------------------------------
G-------------------------------------------------
D--------7--------7-------------------------------
A--*5(2x)----*5(3x)-----5--------10--------8-7----
E--------------------------*8(2x)----*8--7-6------
repeat riff 1 and 2 four times
CHORUS:
the first part of this is ovtives untill Reese says "one day..."
i think these are the right words
youve really got to listen to get the timing right

a----------------g#--a--b----
she is strong but never silent
c----b--a--------g----------f#----
sure of where her truth comes from
f-------C-------------D--------e--
one day one girl army will overcome

CHORDS AFTER CHORUS:
A....G....C....D....F....G....A....f..C...
A....G....C....D....F....G....A

VERSE2: same as verse1
CHORUS: same as chorus above
BRIDGE:
riff 3-palm mute all of this
e-------------------------------------------------
B-------------------------------------------------
G-------------------------------------------------
D-------------------------------------------------
A--0(2x)--2(2x)--3(2x)------2(2x)--3(2x)----------
E------------------------3----------------3-------

e-------------------------------------------------
B-------------------------------------------------
G-------------------------------------------------
D-------------------------------------------------
A--2(2x)--3(2x)----------2------------------------
E-----------------3(2x)---------------------------

riff4-palm mute all of this too
e-------------------------------------------------
B-------------------------------------------------
G-------------------------------------------------
D-------------------------------------------------
A--0(2x)--2(2x)--3(2x)------2(2x)--3(2x)----------
E------------------------3-----------------3------

e-------------------------------------------------
B-------------------------------------------------
G-------------------------------------------------
D-------------------------------------------------
A--2(2x)--3(2x)----------3------------------------
E-----------------3(2x)---------------------------

repeat riffs 3and4 three times...but on the last time don't
play the last A---3--- (C) 
play this

e-------------------------------------------------
B-------------------------------------------------
G-------------------------------------------------
D---2---------------------------------------------
A---2---------------------------------------------
E---0---------------------------------------------
thats an E

Chorus twice...end on A

if you want to play octives the whole chorus they also play some while
Reese sings
 "one day..." this is how that goes:

c-------g-------------a--------b-----
one day one girl army will overcome

ALL THE CHORDS:
G-----10--7--9--------14--13--16--11--17--5-----12
D--7--10--7--9--5--3----------------------5--10---
A--7--8---5--7--5--3--12--11--14--9---15--3--10-10
E--5------------3--1-----------------------or8----
   A  f   D  e  G  F  a   g#  b  f#   c   C     g

tabed my Jim bryant (SOSskankin@aol.com)email me if you have the rhythm part
for the first part of the chorus ("she is strong but...") live for Jesus!
bye..oh,email me if i messed up too!

Comments about this tab

No comments/corrections found. Add your own

Complimentary Christian Ringtones
Dadamobile and CGR have teamed up to bring your favorite Christian artists right to your phone. Sign up today and get 10 complementary ringtones!
Tab Country
Did you know CGR has a sister site w/ country guitar tabs? Well we do! Its called Tab Country. It has a great archive with a lot of country tabs.
Rockin Tabs
Are you looking for a site that has rock guitar tabs? Then Rockintabs.com is the place for you. It is a budding site with many rock guitar tabs. Submit your tab today.
Tab Gallery
Tab Gallery has a compilation of christian, rock, and country tabs all in one place. Come visit us.