Guitar Tabs
song title    band name

Join Us Today!

Don't strum alone...
be a part of the largest online Christian music community. Browse thousands of guitar tabs and chat w/ musicians like yourself.


It's Free!

This tab has been rated a 2.00 out of 5 for accuracy. (3 votes)Sorry, but you must be logged in to rate this tab.
Click here to log-in, or you can click here to register.
(Registration is free)

All songs owned by corresponding publishing company. If you make copies of any song on this website, be sure to report your usage to CCLI.
Submitted by: mattster88

-------------------------------------------------------------------------------
			     Savior - Skillet
-------------------------------------------------------------------------------
Tabbed by: Matt Sweet
Email: mattster8888@yahoo.com

Tuning: Drop C (DAFCGC)

I mainly just concentrated on the acoustic part of the song. It was 
pretty difficult to tab, but it sounds right. This is the only right tab
that I've seen for the acoustic part.

D|-----------------------(3)-------------------------------------------------|
A|--------------------3---3---------------------0----0-----0-----------------|
F|-------0h2p0-----2------4----------0h2p0----2------4-----4-----------------|
C|-----2--------0---------5--------2--------0--------5-----7-----------------|
G|------------------------3--------------------------5-----4-----------------|
C|---2---------------------------2------------------(5)---(4)----------------|

Strum the chord as many times as needed, I just have the chord here. 

D|---------------------(3)---------------------------------------------------|
A|-----------------3----3------------------0---0-----------------------------|
F|-------0h2p0---2------4--------0h2p0---2-----4-----------------------------|
C|-----2-------0--------5------2-------0-------5--------x-x-x-x-x-x----------|
G|----------------------3----------------------5--------x-x-x-x-x-x----------|
C|---2-----------------------2----------------(5)-------x-x-x-x-x-x----------|
								into chorus....


The chorus is pretty simple its just 
D|---------------------------------------------------------------------------|
A|---------------------------------------------------------------------------|
F|-------7---5---------------------------------------------------------------|
C|---2---5---3---------------------------------------------------------------|
G|---2---5---3---------------------------------------------------------------|
C|---2-----------------------------------------------------------------------|


And the ending is just
D|---------------------------------------------------------------------------|
A|---------------------------------------------------------------------------|
F|-------5-------------------------------------------------------------------|
C|---2---3-------------------------------------------------------------------|
G|---2---3-------------------------------------------------------------------|
C|---2-----------------------------------------------------------------------|
The strumming pattern, well, you'll just have to figure that out yourself.

Comments about this tab

No comments/corrections found. Add your own

Complimentary Christian Ringtones
Dadamobile and CGR have teamed up to bring your favorite Christian artists right to your phone. Sign up today and get 10 complementary ringtones!
Tab Country
Did you know CGR has a sister site w/ country guitar tabs? Well we do! Its called Tab Country. It has a great archive with a lot of country tabs.
Rockin Tabs
Are you looking for a site that has rock guitar tabs? Then Rockintabs.com is the place for you. It is a budding site with many rock guitar tabs. Submit your tab today.
Tab Gallery
Tab Gallery has a compilation of christian, rock, and country tabs all in one place. Come visit us.