Guitar Tabs
song title    band name

Join Us Today!

Don't strum alone...
be a part of the largest online Christian music community. Browse thousands of guitar tabs and chat w/ musicians like yourself.


It's Free!

Five Iron Frenzy - One Girl Army

This tab has not yet been rated for accuracy.Sorry, but you must be logged in to rate this tab.
Click here to log-in, or you can click here to register.
(Registration is free)

All songs owned by corresponding publishing company. If you make copies of any song on this website, be sure to report your usage to CCLI.
Song: “One Girl Army”
Artist: Five Iron Frenzy
Album: Quantity Is Job 1
copyright 5 minute walk/Sarabellum records
Tabbed by : donnie (email: dontissimo@hotmail.com)

All right, this is the first time i’ve “tabbed” a song before and
posted it on the internet.  It may not be perfect but this is my
interpretation and i’m pretty sure it’s right. i can’t play lead
but i’m fairly good at rhythm.  That’s what this is.  Check again
in awhile and i may post the lead.  If you find something wrong send
me an email, please, my inbox is empty!!

Intro: AGCD AGB(DC) 2x (second time w/out DC)	

Verse:A             E         A            E
      Here lies the old myth, breaking the mold 
     G                  D      C
with truth can take the trickery.
      A                   E        A        
      Twenty centuries of progress suffer slowly 
      E       G                      D    C
as we regress losing headway to ourselves.
      A          E       A            
      Behold the covers, the sisters, the 
E            G               
mothers, the daughters, and spouses on the 
    D       C
magazines.
      A              E        A           E 
      Truth has been abused.  How can she fill 
              G                   D          
those shoes?  Propaganda meant to fuel their 
C
schemes.



Chorus: A                 E            C
        She is strong but never silent sure of 
                  D
        where her truth comes from. 
        A       G 
        One day one girl army 
        B        E      
        will overcome.

(Play intro here)
          
Verse 2: A            E        A         E
         Striving the current, issues at hand.  
G                       D                C
Shifting which way from justice and then back 

again.
         A            E     A           E
         What we once broke He has made right. 
G                D               C
Lifting her up.  Giving birth to Jesus 

Christ.                  (Back to chorus)

 Weird little diddy: AACCCGCCCGCCCG(CC) 8x   (Back to chorus)

**************************************************************

One Girl Army
Five Iron Frenzy
Proof That The Youth Are Revolting
Matthew Price
mattpriceska@yahoo.com

Verses
------------------
-----1------------
-2-2---2-------0-- Repeat 2x then do this
-----------2-2---2
------------------
------------------


-----------------------------------------------
-----------------------------------------------
-----2----------2------------------------------
-0-0---0----0-0---0----------------------------
---------------------------2-------1------1----
-----------------------3-3---3---2------1------

1st Chourus
-----------------------------------------------
-----------------------------------------------
--14-13-13-14-16-17-16-14-19-11-10-12-14-16----
-----------------------------------------------
--12-11-11-12-14-15-14-12-17-9--8--10-12-14----
-----------------------------------------------

Intro & Interlude
-----------------------------------------------
-----------------------------------------------
---------5--7--5--4----------------------------
--7--5---5--7--5--4--5--7----------------------
--7--5---3--5--3--2--5--7----------------------
--5--3---------------3--5----------------------

2nd Chorus
-----------------------------------------------
-----------------------------------------------
--14-13-13-14-16-17-16-17-19-14-10-12-14-16----
-----------------------------------------------
--12-11-11-12-14-15-14-15-17-12-8--10-12-14----
-----------------------------------------------

Solo
----------------------------------
----------------------------------
---------------------------------- 
----------------------------------
--0-0-0-2-3---0-2-3---0-2-3-------
------------3-------3-------1-3---

One Girl Army is a pretty hard song. It took me a while to figure it out.
If you have any questions about the song please email me at
mattpriceska@yahoo.com

Comments about this tab

No comments/corrections found. Add your own

Complimentary Christian Ringtones
Dadamobile and CGR have teamed up to bring your favorite Christian artists right to your phone. Sign up today and get 10 complementary ringtones!
Tab Country
Did you know CGR has a sister site w/ country guitar tabs? Well we do! Its called Tab Country. It has a great archive with a lot of country tabs.
Rockin Tabs
Are you looking for a site that has rock guitar tabs? Then Rockintabs.com is the place for you. It is a budding site with many rock guitar tabs. Submit your tab today.
Tab Gallery
Tab Gallery has a compilation of christian, rock, and country tabs all in one place. Come visit us.