Guitar Tabs
song title    band name

Join Us Today!

Don't strum alone...
be a part of the largest online Christian music community. Browse thousands of guitar tabs and chat w/ musicians like yourself.


It's Free!

This tab has been rated a 4.73 out of 5 for accuracy. (11 votes)Sorry, but you must be logged in to rate this tab.
Click here to log-in, or you can click here to register.
(Registration is free)

All songs owned by corresponding publishing company. If you make copies of any song on this website, be sure to report your usage to CCLI.
Submitted by: scheller

Learning to Breathe
Switchfoot
Album: LEARNING TO BREATHE
C 2000 re:think Music

Transcribed by scheller    sonnyschell@hotmail.com
This is a correction to my previous tab for this song.  
It was pretty bad, but this one should be much better.
You can get the powertab for this song here:
http://www.christianguitar.org/forums/showthread.php?t=64253

 Intro
  Gtr I (acoustic)
  D5/G                              D5/C
|---------------------------------|----------------------------------|
|-3-3-3-3-3-3-3-----------------3-|-3-3-3-3-3-3-3---------0-------3--|
|-2-4-2-4-2-2-4--2---2--4-------2-|-2-4-2-4-2-2-4--2---2--4-------2--|
|-0-0-0-0-0-0-0--0---0--0-------0-|----------------------------------|
|-------------------------------0-|-3-3-3-3-3-3-3--3---3--3-------3--|
|-3-3-3-3-3-3-3--3---3--3---------|----------------------------------|
|
| Gtr II (clean elec.)
|---------------------------------|----------------------------------|
|-3-3-3-3-3-3-3------3----------3-|-3-3-3-3-3-3-3------3----------3--|
|-2-4-2-4-2-2-4--2---2--4b5r(4)-2-|-2-4-2-4-2-2-4--2---2--4b5r(4)-2--|
|-0-0-0-0-0-0-0--0---0--0---(0)-0-|----------------------------------|
|---------------------------------|-3-3-3-3-3-3-3--3---3--3---(3)-3--|
|-3-3-3-3-3-3-3--3---3--3---(3)---|----------------------------------|


  D5/G                              D5/C    G5/C    Bm/C    G5/C
|---------------------------------|---------------------------------|
|-3-3-3-3-3-3-3-----------------3-|-3-3-3-3-3-3-3-3-3-3-3-3-3-3-3-3-|
|-2-4-2-4-2-2-4--2---2--4-------2-|-2-2-2-2-0-0-0-0-4-4-4-4-0-0-0-0-|
|-0-0-0-0-0-0-0--0---0--0-------0-|---------------------------------|
|-------------------------------0-|-3-3-3-3-3-3-3-3-3-3-3-3-3-3-3-3-|
|-3-3-3-3-3-3-3--3---3--3---------|---------------------------------|
|
|---------------------------------|---------------------------------|
|-3-3-3-3-3-3-3------3----------3-|-3-3-3-3-3-3-3-3-3-3-3-3-3-3-3-3-|
|-2-4-2-4-2-2-4--2---2--4b5r(4)-2-|-2-4-2-2-0-0-0-0-4-4-4-4-0-0-0-0-|
|-0-0-0-0-0-0-0--0---0--0---(0)-0-|---------------------------------|
|---------------------------------|-3-3-3-3-3-3-3-3-3-3-3-3-3-3-3-3-|
|-3-3-3-3-3-3-3--3---3--3---(3)---|---------------------------------|


  D5/G                              D5/C
|---------------------------------|----------------------------------|
|-3-3-3-3-3-3-3-----------------3-|-3-3-3-3-3-3-3---------0-------3--|
|-2-4-2-4-2-2-4--2---2--4-------2-|-2-4-2-4-2-2-4--2---2--4-------2--|
|-0-0-0-0-0-0-0--0---0--0-------0-|----------------------------------|
|-------------------------------0-|-3-3-3-3-3-3-3--3---3--3-------3--|
|-3-3-3-3-3-3-3--3---3--3---------|----------------------------------|
|
|---------------------------------|----------------------------------|
|-3-3-3-3-3-3-3------3----------3-|-3-3-3-3-3-3-3------3----------3--|
|-2-4-2-4-2-2-4--2---2--4b5r(4)-2-|-2-4-2-4-2-2-4--2---2--4b5r(4)-2--|
|-0-0-0-0-0-0-0--0---0--0---(0)-0-|----------------------------------|
|---------------------------------|-3-3-3-3-3-3-3--3---3--3---(3)-3--|
|-3-3-3-3-3-3-3--3---3--3---(3)---|----------------------------------|


  D5/A            G5/A              Dadd11/A
|---------------------------------|---------------------------------||
|-3-3-3-3-3---3---3-3-3-3-3-3-3-3-|-3-3-3-3-3-3-3-3-3-3-3-3-3-3-3-3-||
|-2-2-2-2-2---2---0-0-0-0-0-0-0-0-|-0-0-0-0-0-0-0-0-0-0-0-0-0-0-0-0-||
|-0-0-0-0-0---0---0-0-0-0-0-0-0-0-|-4-4-4-4-4-4-4-4-4-4-4-4-4-4-4-4-||
|-0-0-0-0-0---0---0-0-0-0-0-0-0-0-|-0-0-0-0-0-0-0-0-0-0-0-0-0-0-0-0-||
|---------------------------------|---------------------------------||
|
|---------------------------------|---------------------------------||
|-3-3-3-3-3-3-3-3-3-3-3-3-3-3-3-3-|-3-3-3-3-3-3-3-3-3-3-3-3-3-3-3-3-||
|-2-2-2-2-2-2-2-2-0-0-0-0-0-0-0-0-|-0-0-0-0-0-0-0-0-0-0-0-0-0-0-0-0-||
|-0-0-0-0-0-0-0-0-0-0-0-0-0-0-0-0-|-4-4-4-4-4-4-4-4-4-4-4-4-4-4-4-4-||
|-0-0-0-0-0-0-0-0-0-0-0-0-0-0-0-0-|-0-0-0-0-0-0-0-0-0-0-0-0-0-0-0-0-||
|---------------------------------|---------------------------------||


   Verse 1
    Am                          C
||----------------------------|----------------------------|
||o-1-----1-1-1-1-1-1-1-1-1-1-|-1-1-1-1-1-1-1-1-1-1-1-1-1--|
||--2-2-2-2-2-2-2-2-2-2-2-2-2-|-0-0-0-0-0-0-0-0-0-0-0-0-0--|
||--2-2-2-2-2-2-2-2-2-2-2-2-2-|-2-2-2-2-2-2-2-2-2-2-2-2-2--|
||o-0-0---0-0-0-0-0-0-0-0-0-0-|-3-3---3-3-3-3-3-3-3-3-3-3--|
||----------------------------|----------------------------|

 D5/G    G5      Dadd11   G         D5/G    G5      Dadd11  G        2x
|---------------------------------|----------------------------------||
|-3-3-3-3-3-3-3-3-3-3-3-3-3-3-3-3-|-3-3-3-3-3-3-3-3-3-3-3-3-3-3-3-3-o||
|-2-2-2-2-0-0-0-0-0-0-0-0-0-0-0-0-|-2-2-2-2-0-0-0-0-0-0-0-0-0-0-0-0--||
|-0-0-0-0-0-0-0-0-4-4-4-4-0-0-0-0-|-0-0-0-0-0-0-0-0-4-4-4-4-0-0-0-0--||
|---------------------------------|---------------------------------o||
|-3-3-3-3-3-3-3-3-3-3-3-3-3-3-3-3-|-3-3-3-3-3-3-3-3-3-3-3-3-3-3-3-3--||


 Pre-Chorus 1
  Cadd9      Gmaj7/B    D5
|----------|-2--------|-----------------|-------------------||
|-3--------|-3--------|-3---3---3---3---|-3---3---3---3---3-||
|-0--------|-0--------|-2-2-2-2-2-2-2-2-|-2-2-2-2-2-2-2-2-0-||
|-2--------|-x--------|-0-0-0-0-0-0-0-0-|-0-0-0-0-0-0-0-0-0-||
|-3--------|-2--------|-----------------|-------------------||
|----------|----------|-----------------|-------------------||


   Chorus 
    Cadd9                        Em7           G5/F#  G
||-----------------------------|---------------------------------|
||o-3----3-3-3-3--3--3-3-3-3-3-|--3--3-3-3-3-3-3-3-3--3---3---3--|
||--0-0--0-0-0-0--0--0-0-0-0-0-|--0--0-0-0-0-0-0-0-0--0---0---0--|
||--2-2--2-2-2-2--2--2-2-2-2-2-|--2--2-2-2-2-2-0-0-0--0---0---0--|
||o-3-3--3---3-3--3--3-3-3-3-3-|--2--2-2-2-2-2-------------------|
||-----------------------------|--0--0-0-0-0-0-2-2-2-(3)-(3)-(3)-|
|
|   Gtr II
||------15----------14---------|---------------------------------|
||o----------------------------|----15---------------------------|
||-----------------------------|-16------------------------------|
||-----------------------------|---------------------------------|
||o----------------------------|---------------------------------|
||-----------------------------|---------------------------------|


  1st ending...
  Cadd9                        Em7          G5/F#  G
|----------------------------|---------------------------------||
|-3----3-3-3-3--3--3-3-3-3-3-|--3-3-3-3-3-3-3-3-3--3---3---3--o||
|-0-0--0-0-0-0--0--0-0-0-0-0-|--0-0-0-0-0-0-0-0-0--0---0---0---||
|-2-2--2-2-2-2--2--2-2-2-2-2-|--2-2-2-2-2-2-0-0-0--0---0---0---||
|-3-3--3---3-3--3--3-3-3-3-3-|--2-2-2-2-2-2-------------------o||
|----------------------------|--0-0-0-0-0-0-2-2-2-(3)-(3)-(3)--||
|
|-----15----------14---------|---------------------------------||
|----------------------------|--------------------------------o||
|----------------------------|-16------------------------------||
|----------------------------|---------------------------------||
|----------------------------|--------------------------------o||
|----------------------------|---------------------------------||


  2nd ending...                           [end Chorus]
  D5                      Cadd9
|-----------------------|---------------------------|
|-3-3-3-3-3-3-3-3-3-3-3-|-3-3-3-3-3-3-3-3-3-3-3-3-3-|
|-2-2-2-2-2-2-2-2-2-2-2-|-0-0-0-0-0-0-0-0-0-0-0-0-0-|
|-0-0-0-0-0-0-0-0-0-0-0-|-2-2-2-2-2-2-2-2-2-2-2-2-2-|
|-----------------------|-3-3-3-3-3-3-3-3-3-3-3-3-3-|
|-----------------------|---------------------------|


   Verse 2
              D5/G    G       Dadd11/GG5
||----------|---------------------------------|
||o--rest---|-3-3-3-3-3-3-3-3-3-3-3-3-3-3-3-3-|
||---two----|-2-2-2-2-0-0-0-0-0-0-0-0-0-0-0-0-|
||---bars---|-0-0-0-0-0-0-0-0-4-4-4-4-0-0-0-0-|
||o---------|---------------------------------|
||----------|-3-3-3-3-3-3-3-3-3-3-3-3-3-3-3-3-|

  D5/G    G5      Dadd11  G
|-----------------------------------||
|-3-3-3-3-3-3-3-3-3-3-3-3-3-3-3-3--o||
|-2-2-2-2-0-0-0-0-0-0-0-0-0-0-0-0---||
|-0-0-0-0-0-0-0-0-4-4-4-4-0-0-0-0---||
|----------------------------------o||
|-3-3-3-3-3-3-3-3-3-3-3-3-3-3-3-3---||


  Play Chorus, then... 


   Bridge
    Em7                           Cadd9
||------------------------------|---------------------------|
||o-3-3-3-3---3-3-3-3-3-3-3-3-3-|-3-3-3-3-3-3-3-3-3-3-3-3-3-|
||--0-0-0-0---0-0-0-0-0-0-0-0-0-|-0-0-0-0-0-0-0-0-0-0-0-0-0-|
||--2-2-2-2---2-2-2-2-2-2-2-2-2-|-2-2-2-2-2-2-2-2-2-2-2-2-2-|
||o-2-2-2-2---2-2-2-2-2-2-2-2-2-|-3-3-3-3-3-3-3-3-3-3-3-3-3-|
||--0-0-0-0---0-0-0-0-0-0-0-0-0-|---------------------------|
|
||------------------------------|---------------------------|
||o-8-8-8-8-8---8-8-8-8-8-8-8-8-|-3-3-3-3-3-3-3-3-3-3-3-3-3-|
||--9-9-9-9-9---9-9-9-9-9-9-9-9-|-0-0-0-0-0-0-0-0-0-0-0-0-0-|
||--x-x-x-x-x---x-x-x-x-x-x-x-x-|-2-2-2-2-2-2-2-2-2-2-2-2-2-|
||o-7-7-7-7-7---7-7-7-7-7-7-7-7-|-3-3-3-3-3-3-3-3-3-3-3-3-3-|
||------------------------------|---------------------------|

 D5/G    G5      Dadd11   G         D5/G    G5      Dadd11  G        2x
|---------------------------------|----------------------------------||
|-3-3-3-3-3-3-3-3-3-3-3-3-3-3-3-3-|-3-3-3-3-3-3-3-3-3-3-3-3-3-3-3-3-o||
|-2-2-2-2-0-0-0-0-0-0-0-0-0-0-0-0-|-2-2-2-2-0-0-0-0-0-0-0-0-0-0-0-0--||
|-0-0-0-0-0-0-0-0-4-4-4-4-0-0-0-0-|-0-0-0-0-0-0-0-0-4-4-4-4-0-0-0-0--||
|---------------------------------|---------------------------------o||
|-3-3-3-3-3-3-3-3-3-3-3-3-3-3-3-3-|-3-3-3-3-3-3-3-3-3-3-3-3-3-3-3-3--||


 Pre-Chorus 2
  Cadd9      Gmaj7/B    Cadd9      Gmaj7/B
|----------|-2--------|----------|-2----|
|-3--------|-3--------|-3--------|-3----|
|-0--------|-0--------|-0--------|-0----|
|-2--------|-x--------|-2--------|-x----|
|-3--------|-2--------|-3--------|-2----|
|----------|----------|----------|------|

  Cadd9      Gmaj7/B    D5
|----------|-2--------|-----------------|-----------------||
|-3--------|-3--------|-3---3---3---3---|-3---3---3---3---||
|-0--------|-0--------|-2-2-2-2-2-2-2-2-|-2-2-2-2-2-2-2-2-||
|-2--------|-x--------|-0-0-0-0-0-0-0-0-|-0-0-0-0-0-0-0-0-||
|-3--------|-2--------|-----------------|-----------------||
|----------|----------|-----------------|-----------------||


  Play Chorus, then...


  D5                        Cadd9
|-------------------------|-------------------------|
|-3-3-3-3-3-3-3-3-3-3-3-3-|-3---3-3-3-3-3-3-3-3-3-3-|
|-2-2-2-2-2-2-2-2-2-2-2-2-|-0-0-0-0-0-0-0-0-0-0-0-0-|
|-0-0-0-0-0-0-0-0-0-0-0-0-|-2-2-2-2-2-2-2-2-2-2-2-2-|
|-------------------------|-3-3-3-3-3-3-3-3-3-3-3-3-|
|-------------------------|-------------------------|
|
|-------------------------|-------------------------|
|-3-3-3-3-3-3-3-3-3-3-3-3-|-3---3-3-3-3-3-3-3-3-3-3-|
|-0-0-0-0-0-0-0-0-0-0-0-0-|-0-0-0-0-0-0-0-0-0-0-0-0-|
|-2-2-2-2-2-2-2-2-2-2-2-2-|-2-2-2-2-2-2-2-2-2-2-2-2-|
|-0-0-0-0-0-0-0-0-0-0-0-0-|-3-3-3-3-3-3-3-3-3-3-3-3-|
|-------------------------|-------------------------|


  Em7                       Cadd9
|-------------------------|-------------------------||
|-3-3-3-3-3-3-3-3-3-3-3-3-|-3---3-3-3-3-3-3-3-3-3-3-||
|-0-0-0-0-0-0-0-0-0-0-0-0-|-0-0-0-0-0-0-0-0-0-0-0-0-||
|-2-2-2-2-2-2-2-2-2-2-2-2-|-2-2-2-2-2-2-2-2-2-2-2-2-||
|-2-2-2-2-2-2-2-2-2-2-2-2-|-3-3-3-3-3-3-3-3-3-3-3-3-||
|-0-0-0-0-0-0-0-0-0-0-0-0-|-------------------------||
|
|-------------------------|-------------------------||
|-3-3-3-3-3-3-3-3-3-3-3-3-|-3---3-3-3-3-3-3-3-3-3-3-||
|-0-0-0-0-0-0-0-0-0-0-0-0-|-0-0-0-0-0-0-0-0-0-0-0-0-||
|-2-2-2-2-2-2-2-2-2-2-2-2-|-2-2-2-2-2-2-2-2-2-2-2-2-||
|-0-0-0-0-0-0-0-0-0-0-0-0-|-3-3-3-3-3-3-3-3-3-3-3-3-||
|-------------------------|-------------------------||


  Out-Chorus (play Chorus twice and fade out)


Generated using Power Tab Editor by Brad Larsen

Comments about this tab

No comments/corrections found. Add your own

Complimentary Christian Ringtones
Dadamobile and CGR have teamed up to bring your favorite Christian artists right to your phone. Sign up today and get 10 complementary ringtones!
Tab Country
Did you know CGR has a sister site w/ country guitar tabs? Well we do! Its called Tab Country. It has a great archive with a lot of country tabs.
Rockin Tabs
Are you looking for a site that has rock guitar tabs? Then Rockintabs.com is the place for you. It is a budding site with many rock guitar tabs. Submit your tab today.
Tab Gallery
Tab Gallery has a compilation of christian, rock, and country tabs all in one place. Come visit us.