Guitar Tabs
song title    band name

Join Us Today!

Don't strum alone...
be a part of the largest online Christian music community. Browse thousands of guitar tabs and chat w/ musicians like yourself.


It's Free!

This tab has not yet been rated for accuracy.Sorry, but you must be logged in to rate this tab.
Click here to log-in, or you can click here to register.
(Registration is free)

All songs owned by corresponding publishing company. If you make copies of any song on this website, be sure to report your usage to CCLI.
Submitted by: scheller

With You
Delirious?
Album: WORLD SERVICE
C 2003 Curious? UK
Words and Music by Martin Smith and Stuart Garrard

Transcribed by scheller            sonnyschell@hotmail.com

In this tab, notes in parentheses mean they are held and not played.
During the 2nd Interlude, Gtr III plays some improv-type stuff that I've
tabbed out until the Outro.  It's easier to play if you barre the 12th
fret with your index finger.  If those riffs are too difficult, you can
make do by playing the 1st, 3rd, 5th, and 7th notes in each bar.  I'll 
demonstrate this in Riff B with > marks.  These are more clearly heard
because they're accented.  I've numbered several common riffs to make
this shorter, so I hope my directions are clear.  

I've done a powertab for this which you can get here:
http://www.christianguitar.org/forums/showthread.php?p=1410356

G#5 466xxx
G5  355xxx
C5  x355xx
F5  133xxx
Bb5 x133xx


 Intro
    F     G     Am             G         F     G     Am             G
    Gtr I                                                                    2x
||------3-------3--|-------3-------3---|-----3-------3--|-------3-------3----||
||o-5-------5------|--5--------5-------|-5-------5------|--5--------5-------o||
||----5-------5----|-----5---5---5---5-|---5-------5----|-----5---5---5---5--||
||-----------------|-------------------|----------------|--------------------||
||o----------------|-------------------|----------------|-------------------o||
||-----------------|-------------------|----------------|--------------------||
|
|   Piano (piano arranged for guitar)
||-----------------|---------------0---|----------------|---------------0----||
||o-------------1--|-(1)-----1-0-----1-|-------------1--|-(1)-----1-0-----1-o||
||--2-----4--------|-------------0-----|-2-----4--------|-------------0------||
||--------------2--|-(2)---------------|-------------2--|-(2)----------------||
||o-3---3-5---5-0--|-(0)---------------|-3---3-5---5-0--|-(0)---------------o||
||--1---1-3---3----|-----------3-------|-1---1-3---3----|-----------3--------||


 Verse 1
  F   G   Am
  Piano
|------------|------------|------------|-----|
|---------1--|-(1)--------|-(1)--------|-----|
|-2---4------|------------|------------|-----|
|---------2--|-(2)--------|-(2)--------|-----|
|-3---5---0--|-(0)--------|-(0)--------|-----|
|-1---3------|------------|------------|-----|

  F   G   Am
|------------|------------|------------|----------0---|
|---------1--|-(1)--------|-(1)--------|----1-0-----1-|
|-2---4------|------------|------------|--------0-----|
|---------2--|-(2)--------|-(2)--------|--------------|
|-3---5---0--|-(0)--------|-(0)--------|--------------|
|-1---3------|------------|------------|--------------|

  F    G    Am           G         F    G    Am           G
|--------------|-------------0---|--------------|-------------0---|
|-----------1--|-(1)---1-0-----1-|-----------1--|-(1)---1-0-----1-|
|-2----4-------|-----------0-----|-2----4-------|-----------0-----|
|-----------2--|-(2)-------------|-----------2--|-(2)-------------|
|-3--3-5--5-0--|-(0)-------------|-3--3-5--5-0--|-(0)-------------|
|-1--1-3--3----|---------3-------|-1--1-3--3----|---------3-------|

  F    G    Am           G         F    G    F
|--------------|-------------0---|--------------|
|-----------1--|-(1)---1-0-----1-|--------------|
|-2----4-------|-----------0-----|-2----4----2--|
|-----------2--|-(2)-------------|--------------|
|-3--3-5--5-0--|-(0)-------------|-3--3-5--5-3--|
|-1--1-3--3----|---------3-------|-1--1-3--3-1--|
  
  F                 G
|---------0-------|---------0-------||
|-----------------|-----------------||
|-2---2-------2---|-4---4-------4---||
|---3---3---3---3-|---5---5---5---5-||
|-----------------|-----------------||
|-------------1---|-3---------------||


   Chorus
    C                           Dm7
    Gtr I
||--------------|-------------|-------------|--------------|
||o-5-----5-----|-5-----5-----|-5-----5-----|-5-----5------|
||-----5-----5--|----5-----5--|----5-----5--|----5-----5---|
||--------------|-------------|-------------|--------------|
||o-------------|-------------|-------------|--------------|
||--------------|-------------|-------------|--------------|
|
|   Piano
||--0-----0-----|-0-----0-----|-1-----1-----|-1-----1------|
||o----1-----1--|----1-----1--|----1-----1--|----1-----1---|
||--------------|-------------|-------------|--------------|
||--------------|-------------|-0-----0-----|-0-----0------|
||o-3-----3-----|-3-----3-----|-------------|--------------|
||--------------|-------------|-------------|--------------|
                                                    
  Em+5                        Fmaj7                      2x
|-------------|-------------|-------------|--------------||
|-5-----5-----|-5-----5-----|-5-----5-----|-5-----5-----o||
|----5-----5--|----5-----5--|----5-----5--|----5-----5---||
|-------------|-------------|-------------|--------------||
|-------------|-------------|-------------|-------------o||
|-------------|-------------|-------------|--------------||
|
|-3-----3-----|-3-----3-----|-0-----0-----|-0-----0------||
|----1-----1--|----1-----1--|----1-----1--|----1-----1--o||
|-------------|-------------|-------------|--------------||
|-2-----2-----|-2-----2-----|-3-----------|-3------------||
|-------------|-------------|-------------|-------------o||
|-------------|-------------|-------------|--------------||


 1st Interlude
  F        G        Am                   G
  Gtr I [Riff A]                                         2x
||---------3-----------3----|---------3-----------3------||
||o--5-----------5----------|--5------------5-----------o||
||------5-----5-----5-----5-|------5-----5-----5-----5---||
||--------------------------|----------------------------||
||o-------------------------|---------------------------o||
||--------------------------|----------------------------||
|
| Gtr III [Riff B]
|    >     >     >     >       >      >     >     >
||--------12----------12----|--------15----------12------||
||o-15-13----13-13-12----13-|-13--------13-12-------13--o||
||--------------------------|-----12----------12---------||
||--------------------------|----------------------------||
||o-------------------------|---------------------------o||
||--------------------------|----------------------------||
|
| Piano [Riff C]
||--------------------------|---------------------0------||
||o--------------------1----|-(1)--------1--0--------1--o||
||---2--------4-------------|------------------0---------||
||---------------------2----|-(2)------------------------||
||o--3-----3--5-----5--0----|-(0)-----------------------o||
||---1-----1--3-----3-------|---------------3------------||


 Verse 2
 Gtr I plays Riff A
 Gtr III plays Riff B
 Piano plays Riff D (which is below)
  F        G        Am
|-------------------------|--------------------------|
|--------------------1----|-(1)----------------------|
|--2--------4-------------|--------------------------|
|--------------------2----|-(2)----------------------|
|--3--------5--------0----|-(0)----------------------|
|--1--------3-------------|--------------------------|

  Riff A + Riff B
|--------------------------|-------------------------|
|-(1)----------------------|-------------------------|
|--------------------------|-------------------------|
|-(2)----------------------|-------------------------|
|-(0)----------------------|-------------------------|
|--------------------------|-------------------------|

  Riff A + Riff B + Riff D

  Riff A + Riff B
|--------------------------|-----------0-------------|
|-(1)----------------------|--------------3--1--0--1-|
|--------------------------|-------------------------|
|-(2)----------------------|-------------------------|
|-(0)----------------------|-------------------------|
|--------------------------|-------------------------|


  Riff A + Riff B + Riff D (2x)


  F        G        Am                                 F        G        F
|--------3-----------3----|--------3-----------3----|--------3-----------3----|
|--5-----------5----------|--5-----------5----------|--5-----------5----------|
|-----5-----5-----5-----5-|-----5-----5-----5-----5-|-----5-----5-----5-----5-|
|-------------------------|-------------------------|-------------------------|
|-------------------------|-------------------------|-------------------------|
|-------------------------|-------------------------|-------------------------|
|
|-------12----------12----|-------15----------12----|-------12----------12----|
|-15-13----13-13-12----13-|-13-------13-12-------13-|-15-13----13-13-12----13-|
|-------------------------|----12----------12-------|-------------------------|
|-------------------------|-------------------------|-------------------------|
|-------------------------|-------------------------|-------------------------|
|-------------------------|-------------------------|-------------------------|
|
|-------------------------|-------------------------|-------------------------|
|--------------------1----|-(1)---------------------|-------------------------|
|--2--------4-------------|-------------------------|--2--------4--------2----|
|--------------------2----|-(2)---------------------|-------------------------|
|--3--------5--------0----|-(0)---------------------|--3--------5--------3----|
|--1--------3-------------|-------------------------|--1--------3--------1----|
                              
            
   F                          G                      
|---------3-----------3----|--------3-----------3----||
|--5------------5----------|--5-----------5----------||
|------5-----5-----5-----5-|-----5-----5-----5-----5-||
|--------------------------|-------------------------||
|--------------------------|-------------------------||
|--------------------------|-------------------------||
|
|--------15----------12----|-------12----------12----||
|-13--------13-12-------13-|-15-13----13-13-12----13-||
|-----12----------12-------|-------------------------||
|--------------------------|-------------------------||
|--------------------------|-------------------------||
|--------------------------|-------------------------||
|
|---------------0----------|--------------0----------||
|--------------------------|-------------------------||
|-(2)-----2-----------2----|--4-----4-----------4----||
|--------------------------|-------------------------||
|-(3)----------------------|-------------------------||
|-(1)-----1-----------1----|--3-----3-----------3----||


 Play Chorus and then play this:

 Bridge
  Gtr I (plays chords notated by slashes)
  G#5                         G5
  / // // // /  / // // // /  / // // // /  / // // // /
  Piano
|-------------|-------------|-------------|-------------|
|-4-----4-----|-4-----4-----|-3-----3-----|-3-----3-----|
|----5-----5--|----5-----5--|----4-----4--|----4-----4--|
|-------------|-------------|-------------|-------------|
|-------------|-------------|-------------|-------------|
|-4-----4-----|-4-----4-----|-3-----3-----|-3-----3-----|

  C5                              F5
  / / / // / / /  / / / // / / /   / / / /       / / //  / / / / / ///
|---------------|---------------|------8---------------|-----8--------|
|-----4------4--|-----4------4--|-----10---------------|----10--------|
|---5------5----|---5------5----|---------------10-----|--------10----|
|---------------|---------------|----------------------|--------------|
|-3------3------|-3------3------|--8-------------------|-8------------|
|---------------|---------------|----------------------|--------------|
|
| Gtr IV
|---------------|---------------|-13------(13)\--------|--------------|
|---------------|---------------|----------------------|--------------|
|---------------|---------------|----------------------|--------------|
|---------------|---------------|----------------------|--------------|
|---------------|---------------|----------------------|--------------|
|---------------|---------------|----------------------|--------------|

  G#5                                 G5
   / // /      / / / /  / // // // /   / // /      / / / /  / // // // /
|---------------------|-------------|---------------------|-------------|
|--4-----------4------|-4-----4-----|--3-----------3------|-3-----3-----|
|-----5------------5--|----5-----5--|-----4------------4--|----4-----4--|
|---------------------|-------------|---------------------|-------------|
|---------------------|-------------|---------------------|-------------|
|--4-----------4------|-4-----4-----|--3-----------3------|-3-----3-----|
|
|-16-----(16)\--------|-------------|-15-----(15)\--------|-------------|
|---------------------|-------------|---------------------|-------------|
|---------------------|-------------|---------------------|-------------|
|---------------------|-------------|---------------------|-------------|
|---------------------|-------------|---------------------|-------------|
|---------------------|-------------|---------------------|-------------|

  C5   Bb5    F5
  /    /       /            /             /             /
|-----------|-----------|-------------|-------------|------------------||
|-----------|-----------|-------------|-------------|------------------||
|-5----3----|-----------|-------------|-------------|------------------||
|-----------|--3--------|--(3)--------|--(3)--------|--(3)-------------||
|-3----1----|-----------|-------------|-------------|------------------||
|-----------|--1--------|--(1)--------|--(1)--------|--(1)-------------||
|
|              ~~~~~~~~~~~~~~~~~~~~~~~~~~~~~~~~~~~~~~~~~~~~
|-----------|-13--------|-(13)--------|-(13)--------|-(13)----(13)\----||
|-----------|-----------|-------------|-------------|------------------||
|-----------|-----------|-------------|-------------|------------------||
|-----------|-----------|-------------|-------------|------------------||
|-----------|-----------|-------------|-------------|------------------||
|-----------|-----------|-------------|-------------|------------------||


 1nd Interlude
  Gtr III
|-------12----------12----|-------15----------15----|
|-15-13----13-13-12----13-|-13-------13-13-------13-|
|-------------------------|----12----------12-------|
|-------------------------|-------------------------|
|-------------------------|-------------------------|
|-------------------------|-------------------------|

|-------------12----------|-15----------15----------|
|-13-12-15-13----12-13----|----12-12-13----13-15-13-|
|----------------------12-|-------------------------|
|-------------------------|-------------------------|
|-------------------------|-------------------------|
|-------------------------|-------------------------|

|-------------15----------|-17----15----------------|
|-13----12----------12----|-------------17----15----|
|----12----12----12----12-|----12----12----12----12-|
|-------------------------|-------------------------|
|-------------------------|-------------------------|
|-------------------------|-------------------------|


|-------------------12----|-------12----------12----|
|-13----12-------12-------|-13----------15----------|
|----12----12-14-------12-|----12----12----12----12-|
|-------------------------|-------------------------|
|-------------------------|-------------------------|
|-------------------------|-------------------------|
|
| Piano
|-------------------------|--------------------0----|
|-------------------------|-----------1--0--------1-|
|-------------------------|-----------------0-------|
|-------------------------|-------------------------|
|-------------------------|-------------------------|
|-------------------------|-------------------------|


  Piano plays Riff C over every two bars starting here
  F        G        Am                   G
|-------12----12----------|--------15----------12----|
|-15-13----13----13-12----|-13--------13-13-12-------|
|----------------------12-|-----12----------------12-|
|-------------------------|--------------------------|
|-------------------------|--------------------------|
|-------------------------|--------------------------|
  
  F        G        Am                   G
|-------12----------12----|-15-----------------------|
|-15-13----13-13-12-------|--------12----13----15----|
|----------------------12-|-----12----12----12----12-|
|-------------------------|--------------------------|
|-------------------------|--------------------------|
|-------------------------|--------------------------|

  F        G        Am                   G
|-12----------12----------|-15-----------------12----|
|----12-13-12----13-12----|-----13-12----15----------|
|----------------------12-|-----------12----12----12-|
|-------------------------|--------------------------|
|-------------------------|--------------------------|
|-------------------------|--------------------------|

  F        G        Am                   G
|-------15----17----------|-15-----------------------|
|-13----------------17----|-----13-15-13-13----12----|
|----12----12----12----12-|-----------------12----12-|
|-------------------------|--------------------------|
|-------------------------|--------------------------|
|-------------------------|--------------------------|

  F        G        Am                   G
|-17----------------12----|-15-----12----------12----|
|----13-12----15-13----13-|-----13----13-15-13----13-|
|----------12-------------|--------------------------|
|-------------------------|--------------------------|
|-------------------------|--------------------------|
|-------------------------|--------------------------|

  F        G        Am                   G
|-------------12----------|--------------12----------|
|-12----13-------13-12----|-13-----12-------13-13----|
|----12----12----------12-|-----12----12----------12-|
|-------------------------|--------------------------|
|-------------------------|--------------------------|
|-------------------------|--------------------------|

  F        G        Am                   G
|-------12----------------|--------------12----------|
|-15-13----13-13----12----|-13-----15-13-------13----|
|----------------12----12-|-----12----------12----12-|
|-------------------------|--------------------------|
|-------------------------|--------------------------|
|-------------------------|--------------------------|

  F        G        Am                   G
|-------15----12----------|--------------12----------|
|-13-------13----13-12----|-13-----15----------12----|
|----12----------------12-|-----12----12----12----12-|
|-------------------------|--------------------------|
|-------------------------|--------------------------|
|-------------------------|--------------------------|

  F        G        Am                   G
|-------------15----------|--------------12----------|
|-13----15-13----13-12----|-13-----15-13----12-------|
|----12----------------12-|-----12-------------12-12-|
|-------------------------|--------------------------|
|-------------------------|--------------------------|
|-------------------------|--------------------------|

  F        G        Am                   G
|-15----------------12----|--------15----------------|
|-------13----15-13-------|-13-----------12----15----|
|----12----12----------12-|-----12----12----12----12-|
|-------------------------|--------------------------|
|-------------------------|--------------------------|
|-------------------------|--------------------------|

  F        G        Am                   G
|-12----------------12----|-17-----12----15----------|
|-------12----13----------|-----13----13----13-12----|
|----12----12----12----12-|-----------------------12-|
|-------------------------|--------------------------|
|-------------------------|--------------------------|
|-------------------------|--------------------------|

  F        G        Am                   G
|-------12----------------|-15-----------12----------|
|-13----------13----15----|-----13-15-------13-12----|
|----12----12----12----12-|-----------12----------12-|
|-------------------------|--------------------------|
|-------------------------|--------------------------|
|-------------------------|--------------------------|

 Outro (Gtr III plays some improv here but it was too hard to hear,
        but it is very close to Riff B and the other parts in the
        2nd Interlude, so you can substitute it here)
 Gtr III plays Riff C  11x
 Piano plays Riff D    11x

 end with
  F        G        Am
|-------12----------12--|-(12)----*|
|-15-13----13-15-13-----|---------*|
|-----------------------|---------*|
|-----------------------|---------*|
|-----------------------|---------*|
|-----------------------|---------*|
|
|-----------------------|---------*|
|--------------------1--|--(1)----*|
|--2--------4-----------|---------*|
|--------------------2--|--(2)----*|
|--3-----3--5-----5--0--|--(0)----*|
|--1-----1--3-----3-----|---------*|



Generated using Power Tab Editor by Brad Larsen

Comments about this tab

No comments/corrections found. Add your own

Complimentary Christian Ringtones
Dadamobile and CGR have teamed up to bring your favorite Christian artists right to your phone. Sign up today and get 10 complementary ringtones!
Tab Country
Did you know CGR has a sister site w/ country guitar tabs? Well we do! Its called Tab Country. It has a great archive with a lot of country tabs.
Rockin Tabs
Are you looking for a site that has rock guitar tabs? Then Rockintabs.com is the place for you. It is a budding site with many rock guitar tabs. Submit your tab today.
Tab Gallery
Tab Gallery has a compilation of christian, rock, and country tabs all in one place. Come visit us.