Guitar Tabs
song title    band name

Join Us Today!

Don't strum alone...
be a part of the largest online Christian music community. Browse thousands of guitar tabs and chat w/ musicians like yourself.


It's Free!

This tab has been rated a 4.25 out of 5 for accuracy. (4 votes)Sorry, but you must be logged in to rate this tab.
Click here to log-in, or you can click here to register.
(Registration is free)

All songs owned by corresponding publishing company. If you make copies of any song on this website, be sure to report your usage to CCLI.
Submitted by: sanctusfan14

song:nobody
band:cadet
tabber:josh braun(supersk8er787@usapathway.com)

standard tuning

intro
gtr 1
Bm Bsus2 Dsus2 D Dsus2 Dsus4 G E F#7 x2

on the second time, gtr 2 comes in with this

e-x
b--7---7-8---7--------7---7-8----7----7-8----7--------------
g--------------9---7----------------------------7-------7---
g----9------------------7-------------------------------7h9-
a-x
e-x

verse
Gtr 1
Bm Bsus2 Dsus2 D Dsus2 Dsus4 G F#7 x2

pre chorus
gtr 2
e-x
b-x
d-x
g------------------------------7--7--7--7-7----------------------------------
a-------------------------------------------7---7--7--7-7--------------------
e--7-7-7--7--7-7-7-7-7--7--7-7----------------------------7--7--7--7-7-7-7-7-

g--------7--7--7--7-7----
a---------------------7-7
e-7--7-7-----------------

gtr 1

e-x-a whooooole bunch of rest 
b-x-till the end of prechorus then play the muted strings
g-4----------------x-x-x-x
d-4----------------x-x-x-x
a-2----------------x-x-x-x
e-2----------------x-x-x-x   

chorus(im not puttin # of strums,u can figure it out((its really easy)))

e-x
b-x
g-4--7----------
d-4--7--5------2
a-2--5--5------2
e-2--5--3--0h2-0

interlude
gtr 1
Bm Bsus2 Dsus2 D Dsus2 Dsus4 G E F#7

gtr 2

e-x
b-----------------10--------7------
g----------7-----------------------
d--9------------------------------9
a-x
e-x

verse 2
gtr 1
Bm N.C. D Dsus2 Dsus4 G E F#7
then just go back to the regular chord order in verse 1

gtr 2(second half of verse 2)

e-------------------------------------------10
b--7---7--8---7-------7---7--8---7----------8-
g---------------9---------------------------7-
d-x
a-x
e-x
then play prechorus

ok in the 2nd chorus, an electric piano plays a lil thing(but i figured it out
for the guitar here it is

e-x
b-7-8--7--8--7h8--------7-8--7------8
g-x
d-x
a-x
e-x

interlude(there r two guitar parts here)

e----9-10------9-10-----9-10-------9-10--------9-10------9-10-------9\7
b---------10-----------------10-------------------------------10-------
g-11--------11-------11---------11----------12---------9---------11----
d----------------------------------------------------------------------
a----------------------------------5/12--------12\10-------------------
e-x

gtr solo

a-5----------5-----5----------5h7--7\-----------5---------------4
e-5h7--7--7--5---x-----5---x-----------3---3--3----3--2b--rb----- x4

interlude

e--------------------------------------------------------
b-7---7---7---7-----5h7h5-------7---7---7---7----5h7h5---
g-9b--9hb-9hb-9hb---------7-x2--9b--9hb-9hb-9hb--------7-
d--------------------------------------------------------
a--------------------------------------------------------
e--------------------------------------------------------

intelude cont.
                                            p.m.....        p.m...
e--------------------------------------------------------------------------
b-7---7---7---7---5h7h5----------------------------------------------------
g-9b--9hb-9hb-9hb-------7--------------------------------------------------
d-------------------------5-----6-----8------------------------------------
a-------------------------x(x8)-x(x4)-x(x4)----------2/4--5--------2/4--2\-
e-------------------------3-----4-----4-----3-3--3-3--------0-0--0---------

interlude cont.
 p.m...
e---------------------------
b---------------------------
g---------------------------
d---------------4-----7-----
a-------2/4--5--4(x4)-7(x8)-
e-3-3-3---------2-----5-----

then chorus
then another interlude

e-x
b-7---7---7---7---5h7h5----7---7---7---7----5h7h5\3h5h3--
g-9b--9hb-9hb-9hb-------7--9b--9hb-9hb-9hb--------------4\
d-x
a-x
e-x

outro

e-x
b-x
g----------------4
d--2------4------4
a--2(x4)--4(x4)--2
e--0------2------2

ok thats it, email me if u got n e questions, or just leave em in the 
coments section(i check a bunch,to see what ppl rate it) God Bless, Josh B.

Comments about this tab

dandesmond - 2005-01-27

Nice tab, but maybe you should perhaps leave the chords marked out at the bottom for the people who arent 100% sure on the chords.


Add a comment/correction

Complimentary Christian Ringtones
Dadamobile and CGR have teamed up to bring your favorite Christian artists right to your phone. Sign up today and get 10 complementary ringtones!
Tab Country
Did you know CGR has a sister site w/ country guitar tabs? Well we do! Its called Tab Country. It has a great archive with a lot of country tabs.
Rockin Tabs
Are you looking for a site that has rock guitar tabs? Then Rockintabs.com is the place for you. It is a budding site with many rock guitar tabs. Submit your tab today.
Tab Gallery
Tab Gallery has a compilation of christian, rock, and country tabs all in one place. Come visit us.