Guitar Tabs
song title    band name

Join Us Today!

Don't strum alone...
be a part of the largest online Christian music community. Browse thousands of guitar tabs and chat w/ musicians like yourself.


It's Free!

This tab has been rated a 3.94 out of 5 for accuracy. (17 votes)Sorry, but you must be logged in to rate this tab.
Click here to log-in, or you can click here to register.
(Registration is free)

All songs owned by corresponding publishing company. If you make copies of any song on this website, be sure to report your usage to CCLI.
Submitted by: saint7324

Song: Come Now Is the Time to Worship
Artist: Brian Doerksen

Chorus:

D  Em/D  D
A  Em7  D/F#  G2
D  Em/D  D
A  Em7  D/F#  G2
D

Verse:

G  D
G  D
G  A  Bm
Em7  A

Repeat

Comments about this tab

jmalanio - 2004-08-06

Sorry, I don't see any tabulature here. I need tab, not chord names.


roger caballero - 2004-08-08

mostpeopleknow the chords,but we need the tab,specialy on the lead part of the song..thank you...


mws2001 - 2004-08-14

Here's the lead (done in my own fingering):
W = whole note
H = half note
Q = quarter note
E = eight note
Q. = dotted quarter note

W E E E Q. Q W H Q Q
|-----------|------------------|-----------|-------------|
|-----------|------------------|-----------|-------------|
|-11--------|-9-11-12-11----9--|-12--------|-11----9--7--|
|-----------|------------------|-----------|-------------|
|--9--------|-7--9-10--9----7--|-10--------|--9----7--5--|
|-----------|------------------|-----------|-------------|


W E E E Q. +Q H. Q Q. Q. Q
|----------|------------------|---------------|--------------|
|----------|------------------|---------------|--------------|
|-9--------|-9-11-9-7--(7)----|-/12-------11--|-9----7----7--|
|----------|------------------|---------------|--------------|
|-7--------|-7--9-7-5--(5)----|-/10--------9--|-7----5----5--|
|----------|------------------|---------------|--------------|


W E E E Q. Q H Q. E H E E E E
|-----------|------------------|----------------|-------------------|
|-----------|------------------|-------------12-|-15---14-15-15-10--|
|-11--------|-9-11-12-11----9--|-12----14-------|-------------------|
|-----------|------------------|--------------9-|-12---11-12-12--7--|
|--9--------|-7--9-10--9----7--|-10----12-------|-------------------|
|-----------|------------------|----------------|-------------------|


Q Q Q Q Q H.
|-----------------|------------|
|-12--10--12--15--|-12--10-----|
|-----------------|------------|
|--9---7---9--12--|--9---7-----|
|-----------------|------------|
|-----------------|------------|


Treyfus2007 - 2004-08-30

In the first line of the verse, a chord that i found to sound better than Em is a Dsus. The first line would go like this :

D Dsus D
Come... ...worship


Try it out and let me know how it sounds by posting anothe comment on here. THANKS


Undignified07 - 2004-10-14

Nice job on this tab, I've found that on the first line this works well...

D D2 D Dsus D D2 G
Come now is the time to worship

(D2 just take out ring finger)


Stratcat95 - 2004-10-26

mws2001 ur tab doent make sense!


Stratcat95 - 2004-10-26

hey guys this is a song that som1 in mi worship team needs today on bass so cood any1 get me this song for bass otherwise we wont be able to play it!


justino32 - 2004-12-23

This is a great tab...thanx for it


tubaman - 2005-03-02

this one is close but not exactly check the one that my church band made up the artist is called the praise band of chaple hill i submitted it but one of the guys in the praise band so try that and tell me what u think


jplbboy - 2005-05-20

Does anyone have the tab for Change Me on the Inside?
jplbboy@hotmail.com


ashmabash47 - 2005-11-22

great tab... thanks....

could someone please post tabs for Micah 7:7... its a great song and i really want to learn how to play it


littlebird00 - 2006-12-29

Do you have the tabs for the trumpit solo. I would really love to learn to play that for my friends.


rapids36 - 2007-08-22

for a simple bass part just play the chords with a little improv.


redfrog75 - 2009-01-11

You guys are aware that it is a breach of copyright to perform any song, without purchasing the music. Saves 'googleing' to find it and you will have the correct music.
By the way, verse is D,(d sus) A, Em, G and chorus is G, D, G, D, G, Bm, G, A.
Please, be christian when unseen, as well as seen, we reap what we sow.


Add a comment/correction

Complimentary Christian Ringtones
Dadamobile and CGR have teamed up to bring your favorite Christian artists right to your phone. Sign up today and get 10 complementary ringtones!
Tab Country
Did you know CGR has a sister site w/ country guitar tabs? Well we do! Its called Tab Country. It has a great archive with a lot of country tabs.
Rockin Tabs
Are you looking for a site that has rock guitar tabs? Then Rockintabs.com is the place for you. It is a budding site with many rock guitar tabs. Submit your tab today.
Tab Gallery
Tab Gallery has a compilation of christian, rock, and country tabs all in one place. Come visit us.