Guitar Tabs
song title    band name

Join Us Today!

Don't strum alone...
be a part of the largest online Christian music community. Browse thousands of guitar tabs and chat w/ musicians like yourself.


It's Free!

This tab has been rated a 3.29 out of 5 for accuracy. (7 votes)Sorry, but you must be logged in to rate this tab.
Click here to log-in, or you can click here to register.
(Registration is free)

All songs owned by corresponding publishing company. If you make copies of any song on this website, be sure to report your usage to CCLI.
Submitted by: sanctusfan14

song:change me
band:sanctus real
album:fight the tide
written by:matt hammitt

all chords relative to capo 1

intro/verse

Am B/Am C G F F

pre-chorus

Am Am F F

chorus

C F Am F 
C G F F 

bridge

Am Em G G 
C  Em G G
E  F  C G

there ya go.....this song is sweet, but, so is the whole album....if u dont 
have it yet go buy it!!!!!!!!!!!!!!!!! God bless, Josh B

Comments about this tab

Homestar Runner - 2004-08-09

Yes buy the CD, it's incredibly good, love it


RcKn'Rll247 - 2004-09-29

wheres the intro dude,, ya know the duh na na na no na na na...


Christ's Rocker - 2004-10-18

Hey
What's your tab for B/Am?
The tab seems pretty good, keep up the good work. ;-)


JohnM - 2004-12-16

B/Am? lol... that's not really possible, Am is a chord, and your bass note has to be a, well, note. B/A?


NumeroCinco - 2004-12-16

Concerning the Am/B, I play Em instead. It sounds pretty darn close if not exactly right if you play with the Capo at 1.


chevelle04 - 2004-12-31

attention all intro seekers here it be, but be warned its harmonix so dont attack me if u never heard of such a thing.
e-------------------(13) - add that if you think it needs it
b----------13,13,13--------
g-13,13,13---------13------
d--------------------------
a--------------------------
e--------13---------------- as soon as thats finished start the song the way its says on the tab. Thank you and God Bless


silvister - 2005-01-01

Actually i think the intro goes like this;
very lightly palm mute this;
e-----------------8-8-8-8---8(let ring)---
B---9-9-9-9----9----------9---------------
G-----------10----------------------------
D-----------------------------------------
A-----------------------------------------
E-----------------------------------------


silvister - 2005-01-04

Sorry that intro was tabbed according to no capo on it. so when you try it pretend that the capo wasnt there.


sanctusfan14 - 2005-01-13

the tab for Am/B would be
e-0
b-1
g-0
d-0
a-2
e-0


BreakComa7 - 2005-01-14

actually, the B/Am tabs 020010 could also be called C/B, found it on a website


AAFanGuy25 - 2005-01-17

the last 8 in that tab would actually be an 11.


AAFanGuy25 - 2005-01-17

Maybe the first guitar has a capo on the first. I think the electric guitar has the C# G# C# F# A# D# tuning. If that's the case than maybe the harmonic intro thing is done by him.
(HARMONIC)

G#I-5-5-5-5-6-5-4-4-4-4-5-4-3


sanctusfan14 - 2005-03-04

ya, sanctus real does a lot of there stuff in c#, so ur probaly right


andymac - 2005-03-22

i don't know if anybody else agrees, but i think that the intro of Am B/Am C G F F
is wrong. i play it with Am B/Am C C/G F F and is sounds much better.


JohnM - 2005-03-30

Acoustic intro goes like:

E-|-----------|
B-|-----------|
G-|-2-4-5-----|
D-|-2-4-5-5-3-|
A-|-0-2-3-5-3-|
E-|-0-0-0-3-1-|

With Capo 1. Obviously strumming more than that, you can figure that out.


JohnM - 2005-04-11

Oh yea... harmonics intro, try:

|------------------------------|----------------------------------|
|------------------------------|-<12>-<12>-<12>-<12>------<12>----|
|-<12>-<12>-<12>-<12>-----<12>-|---------------------<12>---------|
|------------------------------|----------------------------------|
|---------------------<7>------|----------------------------------|
|------------------------------|----------------------------------|


gotocollege - 2005-04-28

definatly get the cd. it's awesome. so is say it loud


LOTRFanatic - 2005-04-30

if anyone has been looking for the electric guitar riff at the end of the chorus is

A-0-2-3-------0-2-3-5-3-A
E-------3-1-------------E


LOTRFanatic - 2005-04-30

if anyone has been looking for the electric guitar riff at the end of the chorus is

A-0-2-3-------0-2-3-5-3-A
E-------3-1-------------E


happyhotdogs - 2005-05-20

ok for the intro i think its something like this Harmonics on this all
----------------------------------------------------
----------------------12(4x)-----------12(1x)-------------------
-12(4x)---------12(1x)--------12(1x)-------------8(1x)---------------------
---------12(1x)-------------------------------------------
----------------------------------------------------
----------------------------------------------------
these are all relavtive to capo
Let me know if its right or not


happyhotdogs - 2005-05-20

ok for the intro i think its something like this Harmonics on this all
----------------------------------------------------
----------------------12(4x)-----------12(1x)------------
-12(4x)---------12(1x)--------12(1x)-------------8(1x)-------
---------12(1x)-------------------------------------------
----------------------------------------------------
----------------------------------------------------
these are all relavtive to capo
Let me know if its right or not
i reposted it incase the little line messes u up


rckdude92 - 2006-01-31

hey awesome chords...very easy 2 understand...all chords should b like this...thanks for ur help n God Bless...n yes the cd is the best...support Sanctus Real all the way to the top


relientrocker - 2007-02-14

this is a very controversial song.


Add a comment/correction

Complimentary Christian Ringtones
Dadamobile and CGR have teamed up to bring your favorite Christian artists right to your phone. Sign up today and get 10 complementary ringtones!
Tab Country
Did you know CGR has a sister site w/ country guitar tabs? Well we do! Its called Tab Country. It has a great archive with a lot of country tabs.
Rockin Tabs
Are you looking for a site that has rock guitar tabs? Then Rockintabs.com is the place for you. It is a budding site with many rock guitar tabs. Submit your tab today.
Tab Gallery
Tab Gallery has a compilation of christian, rock, and country tabs all in one place. Come visit us.