Guitar Tabs
song title    band name

Join Us Today!

Don't strum alone...
be a part of the largest online Christian music community. Browse thousands of guitar tabs and chat w/ musicians like yourself.


It's Free!

This tab has been rated a 4.00 out of 5 for accuracy. (7 votes)Sorry, but you must be logged in to rate this tab.
Click here to log-in, or you can click here to register.
(Registration is free)

All songs owned by corresponding publishing company. If you make copies of any song on this website, be sure to report your usage to CCLI.
Submitted by: plainbass

 Song: Falling Out
 By: Relient K
 Played by: Matthew Hoopes
 Album: Two Lefts....
 Tabbed by: ERICA P@
 
 I CHANGED THE CHOURS AND VERSE
 4 4 TIME

 INTRO:1X GUITAR 2
 B--3-3-3-3--4-4-4-4--3-3-3-3-3-3-1-1-1-1----
 G---3-3-3-3--3-3-3-3--3-3-3-3-3-3-3-3-3-3---
 INTRO:2X GUITAR 1
 G-3-------5--------8-------------------------
 D-3-(8X)--5-(8X)---8-(8X)--5-5-5-5-3-3-3-3---
 A-1-------3--------6-------5-5-5-5-3-3-3-3---
 E--------------------------3-3-3-3-1-1-1-1---
   VERSE: GUITAR1 1X
 D-3------5-------8----------------------
 A-1-(8X)-3-(8X)--6-(8X)--5------3-------
 E------------------------3-(4X)-1-(4X)--

 PRE CHOURS:G1 `2X
 D-7-7---7-7----8------8-------3---------
 A-5-5---5-5----6-(8X)-8-(8X)--3-(8X)---
 E-5-5---5-5----6------6-------1---------

 THEN VERSE 1X THEN PRE CHOURS 1X

 COURSE:
 G-3--------5-------3-------8-----------
 D-X-(16X)--X-(16X)-X-(16X)-8-(16X)-----
 A-1--------3-------1-------6-----------
 E--------------------------------------

 G-3-------5-------3-------888-888-888--
 D-X-(16X)-X-(16X)-X-(16X)-888-888-888--
 A-1-------3-------1-------666-666-666--
 E--------------------------------------

  PAINO SOLO

  BRIDGE:1X
 D---------------------------------------
 A-333--6------5------3------------------
 E-111--4-(8X)-3-(8X)-1-(8X)-------------
 
 (QUARTER NOTES)
 D----------------------8-(8X)------------
 A-8--8--8--8---5-------6-------3---------
 E-6--6--5--5---3-(8X)----------1-(8X)----

 D-----------------  Now, quick, go to the pre chorus and then the chorus
 A-8------8--------
 E-6-(4X)-5-(4X)---

  

 OUTRO:1X PLAY THE GUITAR1 PART ON THE INTRO 1X!!!

 AFTER THAT...
 E----------------------------------------------
 B-------------------------7--7--7--7-----------
 G-3-------5------8--------8--8--8--8-----3~~~~~
 D-3-(8X)--5-(8X)-8--(8X)-----------------3~~~~~
 A-1-------3------6-----------------------1~~~~~
 E----------------------------------------------

Comments about this tab

teenspirit89 - 2004-07-02

EXELENTE
ALMOST EXACTLY RITE


plainbass - 2004-07-14

hey sorry but what is wrong with it


plainbass - 2004-07-23

hey i wrote this tab and i screwed up on the pre chours on the 886 and the 668 part u play 668 16x in sted of switching so sorry but the rest i see in ricgt


Add a comment/correction

Complimentary Christian Ringtones
Dadamobile and CGR have teamed up to bring your favorite Christian artists right to your phone. Sign up today and get 10 complementary ringtones!
Tab Country
Did you know CGR has a sister site w/ country guitar tabs? Well we do! Its called Tab Country. It has a great archive with a lot of country tabs.
Rockin Tabs
Are you looking for a site that has rock guitar tabs? Then Rockintabs.com is the place for you. It is a budding site with many rock guitar tabs. Submit your tab today.
Tab Gallery
Tab Gallery has a compilation of christian, rock, and country tabs all in one place. Come visit us.