Guitar Tabs
song title    band name

Join Us Today!

Don't strum alone...
be a part of the largest online Christian music community. Browse thousands of guitar tabs and chat w/ musicians like yourself.


It's Free!

This tab has been rated a 5.00 out of 5 for accuracy. (1 vote)Sorry, but you must be logged in to rate this tab.
Click here to log-in, or you can click here to register.
(Registration is free)

All songs owned by corresponding publishing company. If you make copies of any song on this website, be sure to report your usage to CCLI.
Submitted by: acting2damax

Santcus Real
The Way I Feel


Tune: Low E to High E as follows -
C# G# C# Eb G# C

Chord Patterns for Intro/Verses/Outro
1---0-0-------------0-0--------------------------------------------I
2---0-0--7-7-7-7---0-0--5-5-5-5---0-0-0-0-0-0--x----------------I
3---0-0--7-7-7-7---0-0--5-5-5-5-----------------x-----------------I
4---7-7-------------7-7------------4-4-4-4-4-4--x--2-2-2-2-2-2----I
5---7-7--7-7-7-7---7-7--5-5-5-5---4-4-4-4-4-4--x--2-2-2-2-2-2----I
6---7-7-------------7-7------------4-4-4-4-4-4--x--2-2-2-2-2-2----I 

Pre Chorus 3x
1-------------------------------------------I
2---5-5-5-x-x------------------------------I
3---5-5-5-x-x------------------------------I
4----------------4-x--2-2-2-2--------------I
5---5-5-5-x-x----4-x--2-2-2-2--------------I
6----------------4-x--2-2-2-2---------------I

Chorus 1st part (Chords are picked note for note each chord is played twice)

----A--------------Ab------------F#------------------D

1---------0--------------0--------------0-----------I
2-----0-----0---0-----0---0--0------0-----0---0----I
3----5--5-----5------4-4---4-------2--2-----2------I
4---7---------------6-------------4-----------------I
5----------------------------------------------------I
6----------------------------------------------------I

Chorus 2nd part (Ascending riff w/ open 4string whole time)
1-----------------------------------------------------------------I
2-----------------------------------------------------------------I
3---10-10-10-10---12-12-12-12--14-14-14-14---16-17-16-17-----I
4----0--0--0--0----0--0--0--0----0--0--0--0----0--0--0--0------I
5-----------------------------------------------------------------I
6-----------------------------------------------------------------I

Turnaround Riff into 2nd verse
1---0-0-0---0---0-0-0-0--0---0---0-0-0---0------------I
2---4-4-4--h5-/-7-5-4-4-h5-4h5--7-5-4h5-4--0--0------I
3---------------------------------------------5--0------I
4-------------------------------------------------------I
5-------------------------------------------------------I
6-------------------------------------------------------I


Bridge 1ST HALF
1--------------------------------------------------------I
2--------------------------------------------------------I
3-----4-4-2------4-4-2---4-4-4-5-5-5-7-7-7-4-4----------I
4-----4-4-4----2-2-2-2---0-0-0-0-0-0-0-0-0-0-0-----------I
5--------------2-2-2-2------------------------------------I
6---4-4-4-4---2-2-2-2-------------------------------------I

Bridge 2ND HALF
1------------------------------------------------------------I
2------------------------------------------------------------I
3------4-4-2----4-4--4-4-4-4-5-5-5-5-7-7-7-7-9-9-9-9-----I
4------4-4-4--2-2-2--0-0-0-0-0-0-0-0-0-0-0-0-0-0-0-0------I
5-------------2-2-2------------------------------------------I
6---4-4-4-4---2-2-2-----------------------------------------I

1------------------------------------------------------------------I
2------------------------------------------------------------------I
3--10-10-10-10-12-12-12-12-14-14-14-14--16-17-16-17-----------I
4---0--0--0--0--0--0--0--0---0--0--0--0---0---0--0--0-----------I
5------------------------------------------------------------------I
6-----------------------------------------------------------------I

Pick through the chorus one more time for instrumental break with 
leslie or phaser pedal. 

During the last chorus add the root note on the 6th string to the 
chorus described above and strum instead of pick. 

Comments about this tab

spmantar - 2004-07-06

This tab was taken from the message board of the official Sanctus Real website. Please give credit to Chris Rohman for providing the authentic guitar tab to the song. http://www.sanctusreal.com/board2/topic.asp?TOPIC_ID=625


hi-i'm-jordan - 2004-11-25

are you sure there's not a better way to tune your guitar for that song? cuz that's some messed up tuning.


JohnM - 2004-12-28

No, that's a tuning they use for a few diff. songs... and this tab is straight from their guitar player, so I think he would know ;)


the strat guy - 2007-01-08

Looks Chalenging... I like it!


Add a comment/correction

Complimentary Christian Ringtones
Dadamobile and CGR have teamed up to bring your favorite Christian artists right to your phone. Sign up today and get 10 complementary ringtones!
Tab Country
Did you know CGR has a sister site w/ country guitar tabs? Well we do! Its called Tab Country. It has a great archive with a lot of country tabs.
Rockin Tabs
Are you looking for a site that has rock guitar tabs? Then Rockintabs.com is the place for you. It is a budding site with many rock guitar tabs. Submit your tab today.
Tab Gallery
Tab Gallery has a compilation of christian, rock, and country tabs all in one place. Come visit us.