Guitar Tabs
song title    band name

Join Us Today!

Don't strum alone...
be a part of the largest online Christian music community. Browse thousands of guitar tabs and chat w/ musicians like yourself.


It's Free!

This tab has been rated a 4.74 out of 5 for accuracy. (23 votes)Sorry, but you must be logged in to rate this tab.
Click here to log-in, or you can click here to register.
(Registration is free)

All songs owned by corresponding publishing company. If you make copies of any song on this website, be sure to report your usage to CCLI.
Submitted by: kmastrat12

Intro:Acoustic
D--2-2-2--5-5-5-5--7-7-7-7/9-9-9-9-
A--2-2-2--5-5-5-5--7-7-7-7/9-9-9-9-  (2x)
E--0-0-0--3-3-3-3--5-5-5-5/7-7-7-7-

Intro:Electric(Distortion)
D----------------8-8--7-7--5-5-5-5
A--3-3-3--6-6-6--6-6--5-5--3-3-3-3 (4x)
E--1-1-1--4-4-4-------------------

Verse:
D----------6-6-5-5-------
A--3-3-3-3---------4-4-4- (4x)
E--1-1-1-1---------------

Chorus:
D----------------8-8--3-3--5-5-5-5-
A--3-3-3--6-6-6--6-6--1-1--3-3-3-5- (4x)
E--1-1-1--4-4-4--------------------

repeat verse and chorus until solo

Solo:                                               
e-------------------------------12/15--------------|------------------
B--3-3-3--------12/15-----------------15-15-15-----|--15^-15-15-15-15-
G--6-6-6--------------13-13-13-----------------(4x)|------------------
D--------6-6-6-------------------------------------|------------------
                                                    play 4th time ^
then play the chorus till end


Comments about this tab

kamikaze11202 - 2004-10-28

I Love this song!


DavWal - 2005-02-10

dude awesome job! thanks


jesusfreak90 - 2005-03-01

nice job these r perfect


Strumming4Jesus - 2005-06-14

Awesome job man! Awesome


Strumming4Jesus - 2005-06-29

I was just wondering if any of ya'll know that little riff the guy does at the end of the song, if ya do post it up plz!


God'sFingrprint - 2005-08-02

I have to say, this sounds REALLY good.


Jesusfreak8191 - 2005-10-27

Hey nice tab it sounds really good but the distortion part is wrong It goes:


G--------------------8-8
D--3-3-3-3--6-6-6-6--8-8
A--3-3-3-3--6-6-6-6--6-6 and so on it sounds better adding that extra
E--1-1-1-1--4-4-4-4---- finger

good job


jesusfreak936 - 2005-10-27

I agree with Jesusfreak8191, sounds better using power chords...awesome tab though.


jesusfreak936 - 2005-10-27

How does the rap part go??


TG-da-JF - 2005-12-07

thats like almost the same as the song JesusFreak by DC talk :|


TG-da-JF - 2005-12-07

ummmm... woops... thought i was at the tab skillet - alien youth :$ :p


Grimertop - 2006-01-01

quick question. anyone know how the "people say i'm strange" part goes?


JESUSFReaK301 - 2006-03-05

I think the riff at the end is mostly on the 15 and 17/18 fret on the 1st and 2nd String. (e and B) I try and figure it out exactly, but for now i hope that helps. It is mostly alot of bends. Just play around in that area of the guitar. It'll sound close enough. :-b


guitarist1393 - 2006-06-15

Dude, that's my favorite song! Good Job! =) :-) <=)


Hunts - 2007-04-29

does anybody have bob dylan you gat to serve somebody tabs


Hunts - 2007-04-29

does anybody have bob dylan you got to serve somebody tabs


thejesusfreak36 - 2008-01-09

Thanks for tabbing this song its my fav!!!

god bless you


StandFree - 2008-05-19

Good but i think for the chorus, this is also good:
The lead w/ distortion plays:

G-----------------8-8--7-7--5-5-5-5|
D-3-3-3--6-6-6-6--x-x--x-x--x-x-x-x|
A-3-3-3--6-6-6-6--6-6--5-5--3-3-3-3|
E-1-1-1--4-4-4-4-------------------|

While the other guitar plays:

G-----------------8-8------------------|
D-3-3-3--6-6-6-6--8-8--8-8--10-10-10-10|
A-3-3-3--6-6-6-6--6-6--8-8--10-10-10-10|
E-1-1-1--4-4-4-4-------6-6--8--8--8--8-|

I think that sounds closest to the record I've Heard and the live version is played down a half step.


StandFree - 2008-05-19

The thing moved the g string notes a bit so just move them a little to the right


J3ZUZ FR3AK #1 - 2008-06-16

nice, it all sounds like the one i use.


Add a comment/correction

Complimentary Christian Ringtones
Dadamobile and CGR have teamed up to bring your favorite Christian artists right to your phone. Sign up today and get 10 complementary ringtones!
Tab Country
Did you know CGR has a sister site w/ country guitar tabs? Well we do! Its called Tab Country. It has a great archive with a lot of country tabs.
Rockin Tabs
Are you looking for a site that has rock guitar tabs? Then Rockintabs.com is the place for you. It is a budding site with many rock guitar tabs. Submit your tab today.
Tab Gallery
Tab Gallery has a compilation of christian, rock, and country tabs all in one place. Come visit us.