Guitar Tabs
song title    band name

Join Us Today!

Don't strum alone...
be a part of the largest online Christian music community. Browse thousands of guitar tabs and chat w/ musicians like yourself.


It's Free!

This tab has been rated a 4.25 out of 5 for accuracy. (4 votes)Sorry, but you must be logged in to rate this tab.
Click here to log-in, or you can click here to register.
(Registration is free)

All songs owned by corresponding publishing company. If you make copies of any song on this website, be sure to report your usage to CCLI.
Submitted by: Gods Romance

Grace like a River:
written by Martin Smith and Stu Garrard of delirious?
song appears on the album World Service

Opening:
I'm not quite sure cause Stu uses an octave effect I think, but I just 
get away with:
e------------------------
B------15----------------
G------14---------------- x12 or so
D------------------------
A------------------------
E------------------------
    
then:


opening riff A:
e-----------------------------------
B-----------7b-----------7----------
G--------5------------5-------------    x2
D-----7------------7----------------
A--5------------5-------------------
E-----------------------------------

verse:
e------------------------------------
B------------------------------------
G--------2-----------2-------------0-
D------0---0-------0---0---------0---
A----3-------3---3-------3-----5-----
E--1-----------1-----------1/3-------


opening riff A:
e-----------------------------------
B-----------7b-----------7/15-------
G--------5------------5-------------    
D-----7------------7----------------
A--5------------5-------------------
E-----------------------------------

verse again:
e------------------------------------
B------------------------------------
G--------2-----------2-------------0-
D------0---0-------0---0---------0---
A----3-------3---3-------3-----5-----
E--1-----------1-----------1/3-------

Riff A
e-----------------------------------
B-----------7b-----------7----------
G--------5------------5-------------  X2  
D-----7------------7----------------
A--5------------5-------------------
E-----------------------------------
                          
verse again:
e------------------------------------
B------------------------------------
G--------2-----------2-------------0-          x2
D------0---0-------0---0---------0---
A----3-------3---3-------3-----5-----
E--1-----------1-----------1/3-------



Chorus(see bottom for definitions):
      D---D/C#---G---C


Verse:
e------------------------------------
B------------------------------------
G--------2-----------2-------------0-          
D------0---0-------0---0---------0---
A----3-------3---3-------3-----5-----
E--1-----------1-----------1/3-------


riff A:(not soo rockin' out this time)
e-----------------------------------
B-----------7b-----------7----------
G--------5------------5-------------    
D-----7------------7----------------
A--5------------5-------------------
E-----------------------------------
                          ^flip toggle

Verse:
e------------------------------------
B------------------------------------
G--------2-----------2-------------0-          
D------0---0-------0---0---------0---
A----3-------3---3-------3-----5-----
E--1-----------1-----------1/3-------


Riff A(hard again) 
e-----------------------------------
B-----------7b-----------7----------
G--------5------------5-------------   
D-----7------------7----------------
A--5------------5-------------------
E-----------------------------------


Verse:
e------------------------------------
B------------------------------------
G--------2-----------2-------------0-          
D------0---0-------0---0---------0---    x2
A----3-------3---3-------3-----5-----
E--1-----------1-----------1/3-------

Chorus again x2
D---D/C#---G---C




Bridge
B-----A------B------A



Back to chorus(a couple times)
D---D/C#---G---C



Chord bank:
   (D)    (D/C#)   (G)    (C)     (B)     (A)
    2       2       3      3       X       0 
    3       3       3      3       X       0 
    2       2       0      0       4       2 
    0       0       0      2       4       2 
    X       4       2      3       2       0
    X       X       3      X       X       X


tabbed by Jacob and Cole of Evident.
The song is pretty close to what it is REALLY is played. 
I've seen it played only twice in concert so there are 
some spots where I'm not real sure of.
Any questions feel free to ask me online
aol: Jacob Riddle
msn/e-mail: jake_riddle@hotmail.com
God bless delirious? and Texas!
  -Jacob

Comments about this tab

mikeymeister - 2004-10-25

Pretty Immense tab, But nex time jus make a song structure, itll make the print out smaller and save u a lot f time


Gods Romance - 2005-01-23

Copy and paste my friend. I originally tab this out with D/C# I believe in the chorus. Please disregard that chord and substitute it for:

D?
2
2
2
0
X
X

it sounds more correct.


Greenleaf - 2005-07-19

on the chorus its like this i think
D D/C# G Em

and the bridge

Bb Am C Am


Jahdiel - 2006-05-09

The C#/D is played xx0222. The chords for chorus: C, C#/D, G, e. Stroke 1 time/ 1 beat. Bridge: Bb, A, C, G.


Jahdiel - 2006-05-09

And i think the intro is on: 14
15
x
x
x
x


Add a comment/correction

Complimentary Christian Ringtones
Dadamobile and CGR have teamed up to bring your favorite Christian artists right to your phone. Sign up today and get 10 complementary ringtones!
Tab Country
Did you know CGR has a sister site w/ country guitar tabs? Well we do! Its called Tab Country. It has a great archive with a lot of country tabs.
Rockin Tabs
Are you looking for a site that has rock guitar tabs? Then Rockintabs.com is the place for you. It is a budding site with many rock guitar tabs. Submit your tab today.
Tab Gallery
Tab Gallery has a compilation of christian, rock, and country tabs all in one place. Come visit us.