Guitar Tabs
song title    band name

Join Us Today!

Don't strum alone...
be a part of the largest online Christian music community. Browse thousands of guitar tabs and chat w/ musicians like yourself.


It's Free!

This tab has been rated a 4.20 out of 5 for accuracy. (5 votes)Sorry, but you must be logged in to rate this tab.
Click here to log-in, or you can click here to register.
(Registration is free)

All songs owned by corresponding publishing company. If you make copies of any song on this website, be sure to report your usage to CCLI.
Submitted by: Timberwolf

Band: Relient K
Song: The rest is up to you
Written by: Matthew Theissen
Tabbed by: Nathan N.

Intro x1
--------------------
--------------------
--------------------
7xxxxxx-9xxxxxx-9/5~
7xxxxxx-9xxxxxx-9/5~
5xxxxxx-7xxxxxx-7/3~

Verse1 x1
---------------------------------------
---------------------------------------
xx7/9xx9/7xxxxxxxxxx-7/9xx9/7xxxxxxxxxx
xx7/9xx9/7xxxxxxxxxx-7/9xx9/7xxxxxxxxxx
xx5/7xx7/5xxxxxxxxxx-5/7xx7/5xxxxxxxxxx
---------------------------------------

Pre-Chorus x1
---------------
---------------
7-7-7777777777-
7-7-7777777777<
5-5-5555555555<
---------------

Chorus x1
--------------------------------------------------99----
--------------------------------------------99-77-------
---------7-7----9-9-------------77----99-77----------13~
77777777-7-7x12-9-9x12-7-7----7-77-77-------------------
77777777-5-5----7-7----7-7x12-7-55----------------------
55555555---------------5-5----5-------------------------

Verse2 part one x1
--------------------------------------------------------
--------------------------------------------------------
9xxxxxxxxxxxx-9xxxxxxxxxxxxx-7xxxxxxxxxxxx--------------
9xxxxxxxxxxxx-9xxxxxxxxxxxxx-7xxxxxxxxxxxx-7-7-777-77-77
7xxxxxxxxxxxx-6xxxxxxxxxxxxx-5xxxxxxxxxxxx-7-7-777-77-77
-------------------------------------------5-5-555-55-55

Part two x1
---------------------------------------------------
---------------------------------------------------
9-9|-9----9-9|-9----7-7|7--------------9---7-------
9-9|-9x12-9-9|-9x12-7-7|7x12-7-7-777-7-9-7-7-------
7-7|-7----6-6|-6----5-5|5----7-7-777-7-7-7-5-------
-----------------------------5-5-555-5---5---------
                       Verse1
                       Chorus
                       Verse2

Bridge x1                                        Go back to the beginning
--------------|---------------------------------|-------of the other line don't
--------------|---------------------------------|-------play this again
------7-------|--5~---7---------7-777-777-777777|---9---
555-5-7-777-77|3-5~-5-7

Comments about this tab

Timberwolf - 2004-06-18

Sorry!They cut it off! Bridge x1 This x1 then go back and play at the
------------|----------------------------|----------------other dont play this
------------|----------------------------|----------------again!
------7-----|---7~---9--7-777-777-777777-|---9------------
555-5-7-7777|-2-7~-7-9--7-777-777-777777-|77-9-99---------
555-5-5-7777|-2-5~-7-7--5-555-555-555555-|77-7-99---------
333-3---5555|-0----5---------------------|55---77---------
^
quietly

Then play part1 and part 2
Nathan N.


Timberwolf - 2004-06-18

The end of verse two part one is
-----------------------------------------
-----------------------------------------
-----------------------------------------
7-7-777-99-99----------------------------
7-7-777-99-99----------------------------
5-5-555-77-77----------------------------
Nathan N.


slikmastah - 2005-01-26

I love it when he does this in the song, but I just had to get it right, so I'll fix it for ya. It's this part
Chorus x1
----------------99---- it should be -----------------------------
----------99-77------- ----------------77-88-1010-9~
----99-77----------13~ -----------77-99-------------
-77------------------- -77-99-1010------------------
---------------------- -----------------------------
---------------------- -----------------------------


Add a comment/correction

Complimentary Christian Ringtones
Dadamobile and CGR have teamed up to bring your favorite Christian artists right to your phone. Sign up today and get 10 complementary ringtones!
Tab Country
Did you know CGR has a sister site w/ country guitar tabs? Well we do! Its called Tab Country. It has a great archive with a lot of country tabs.
Rockin Tabs
Are you looking for a site that has rock guitar tabs? Then Rockintabs.com is the place for you. It is a budding site with many rock guitar tabs. Submit your tab today.
Tab Gallery
Tab Gallery has a compilation of christian, rock, and country tabs all in one place. Come visit us.