Guitar Tabs
song title    band name

Join Us Today!

Don't strum alone...
be a part of the largest online Christian music community. Browse thousands of guitar tabs and chat w/ musicians like yourself.


It's Free!

This tab has been rated a 4.50 out of 5 for accuracy. (2 votes)Sorry, but you must be logged in to rate this tab.
Click here to log-in, or you can click here to register.
(Registration is free)

All songs owned by corresponding publishing company. If you make copies of any song on this website, be sure to report your usage to CCLI.
Submitted by: Rinna

Song: Shipwrecked
Artist: Jars of Clay

There are two guitar parts in this song. It wasnít too difficult to find out 
the leading guitar picking pattern. I tried to find out the picking pattern for the
second guitar part and guess it kind of sounds OK, just find someone to play
the first guitar part for you and see how it sounds together and it might be 
necessary you make some adjustments.
In case you think it all sounds weird, DO LET ME KNOW, as this is my first tab 
submitted ever. 
Well, itís a great song for rainy days, so enjoy it!

Leading guitar
PART I
e |--------------------------------|
B |--------1--------------1--------|
G |------0---0---0------0---0---0--|
D |----2-------2------3-------3----|
A |--3--------------3--------------|
E |--------------------------------|

PART II
e |--------------------------------|
B |--------1--------------1--------|
G |------0---0---0------0---0---0--|
D |----3-------3------3-------3----|
A |-----------------2--------------|
E |--3-----------------------------|

Background guitar(top strings)
PART I						* in some parts picked this way
e |--------3---------------3--------|	|--1-----3--------|
B |----1-----1---1-----1-----1---1--|	|----1-----1---1--|
G |--0---0-----0----*2---2-----2----|	|--2---2-----2----|
D |---------------------------------|	|-----------------|
A |---------------------------------|	|-----------------|
E |---------------------------------|	|-----------------|

PART II						* in some parts picked this way
e |--------3---------------0--------|	|--0-----0--------|
B |------0----0--------1-----1---1--|	|----1-----1---1--|
G |----5----5---5---*2---2-----2----|	|--2---2-----2----|
D |--5------------------------------|	|-----------------|
A |---------------------------------|	|-----------------|
E |---------------------------------|	|-----------------|


Intro
PI 2x
Verse
PI 4x

Chorus	
PII 3x, PI  2x (Background guitar comes in)

Verse
PI 4x

Chorus
PII 3x, PI 2x

Bridge (instrumental part)
PII 3x, PI 2x

Verse
PI 4x

Chorus
PII 3x, PI 4x**   (**end by strumming down once) 		

Thatís it, basically! Any comments, email me at love_for_africa@yahoo.com.

Comments about this tab

Mathijs - 2004-10-27

excellent work!


Add a comment/correction

Complimentary Christian Ringtones
Dadamobile and CGR have teamed up to bring your favorite Christian artists right to your phone. Sign up today and get 10 complementary ringtones!
Tab Country
Did you know CGR has a sister site w/ country guitar tabs? Well we do! Its called Tab Country. It has a great archive with a lot of country tabs.
Rockin Tabs
Are you looking for a site that has rock guitar tabs? Then Rockintabs.com is the place for you. It is a budding site with many rock guitar tabs. Submit your tab today.
Tab Gallery
Tab Gallery has a compilation of christian, rock, and country tabs all in one place. Come visit us.