Guitar Tabs
song title    band name

Join Us Today!

Don't strum alone...
be a part of the largest online Christian music community. Browse thousands of guitar tabs and chat w/ musicians like yourself.


It's Free!

This tab has not yet been rated for accuracy.Sorry, but you must be logged in to rate this tab.
Click here to log-in, or you can click here to register.
(Registration is free)

All songs owned by corresponding publishing company. If you make copies of any song on this website, be sure to report your usage to CCLI.
Submitted by: sanctusfan14

song:speaking in tounges
band:the elms
written by: owen thomas
standard tuning
key
b1=bend the full way
b1/2=bend halfway
bend1/4=bend 1/4 of way
t=tie together
/=slide
p.m=palm mute

intro
e-0----0------------------------0------0-------------------------
b-3b1--3b1--0---3b1--0----0----------------------------------------
g-------------------------3b1/2------2------2---2/4---------------4
d------------------------------------------------------4b1/2-/2---2
a------------------------------------------------------------------
e------------------------------------------------------------------

keep playin that, then guitar 2 comes in later(listin to cd) and plays this

e---------------------------------------------------------0--0--------0
b------------------------------------------------3-----0-----3-----0--3
g------------------------------------------------2-----------2--3-----2
d-2--2-----------2--2--2--2--2---2--2-2--2----2--0--2--------0--------0
a-2--2-----------2--2--2--2--2---2--2-2--2----2-----2------------------
e-0--0-----------0--0--0--0--0---0--0-0--0----0-----0------------------

guitar 2 intro cont.

e--------------------------------------------------------------------
b----------------0--0-0----------------------------------------------
g-2-2------------4--4-4-x2-------------------------------------------
d-2-2---------2--2--2-2----7--7--4----2----------7--7-4--------------
a-0-0---------2---------x2-5--4--2----0----------5--4-2----0--4-5---7
e------3b1/2--0---------------------------2b1/2----------------------

verse
 p.m...      p.m...           p.m......                   p.m..............
e--------------------------------------------------------------------------
b-------------------------------------------3------------------------------
g---------1----------2--2----------------2--------3------------------------
d-------------2---2--0--0--0------------------------2---2------------------
a-2---2---------2-----------------2---2-------------0------------------2--2
e-0---------------------------0---0---0-------------------3b1/2----0---0--0

verse cont.
  p.m....          p.m..                                   p.m.
e-------------------------------------------------------------------------0
b--------------------------------------3-----------------------------------
g---------1--------------2-2-------2---------2------------------------2----
d---------------2--------0-0---0---------------2---------2--------0--------
a--0t2-------------2--0------------------------0-----------2--2------------
e------0---------------------------------------------------0--0------------

verse cont.(still)
          p.m...............       p.m         p.m.....
e-------------------------------------------------------------------------
b-3--0----------------------------------------------------------3---------
g----2---------1--------------1----------2-2------------------2------2---2
d----2--0--2---2-----------------2-------0-0--------------0--------------0
a----0--0--2---2------0t2----------2-0-------------2--2-------------------
e----------0---0-----------0-------------------0---0--0-------------------

verse cont.(seems like it doesn't end lol)
    p.m...................        p.m..         p.m...
e------------------------------------------------------------------------
b--------------------------------------------------------------3---------
g--------------------------1--------------2-2---------------2------------
d-2-----------------------------2---------0-0-----------0------------2---
a--------------2-2---0t2----------2--0-------------2-2------------------2
e---3b1/2--0---0-0-------0----------------------0--0-0------------------0

verse cont.(last time:-D)

e-----------------0--------------------------------
b-------------------------0------------------------
g-1-----------2--------3--2-----------1----1---1--1
d-2----0------------------2-----0-----2----2---2--2
a-2-----------------------0-----0-----2----2---2--2
e-------------------------------------0----0---0--0

chorus

e--------------------------------------------------------------------------
b------------2--2---------3--------2--------2--2---------------------------
g-1-1--------2--2---------2--------2--------2--2---------------------------
d-2-2--------2--2---------4--------2--------2--2---------------------------
a-2-2--------0--0---------0--------0--------0--0------5---4---2---0--------
e-0-0---------------------------------------------0-------------------2b1/2

chorus cont.

e-------------------------------------------------------------------------
b-------------------------------2-2-----3-------2----------2-2------------
g-------1---1------------1--1---2-2-----2-------2----------2-2------------
d-------2---2------------2--2---2-2-----4-------2----------2-2------------
a-------2---2------------2--2---0-0-----0-------0----------0-0----5--4---2
e-0-----0---0------------0--0-----------------------------------0---------

chorus cont.

e-x
b-x
g-x
d-x
a-0---4--5---7----7/
e-x

interlude
 A7sus4                          A7
e-3--------3-3--3----------------3--3--3----------------3-3--3---3---3
b-3--------3-3--3----------------2--2--2----------------2-2--2---2---2
g-0--------0-0--0----------------0--0--0----------------0-0--0---0---0
d-2--------2-2--2----------------2--2--2----------------2-2--2---2---2
a-0--------0-0--0----------------0--0--0----------------0-0--0---0---0
e---------------------------------------------------------------------

interlude cont.

e-3--3--3---3---3---0
b-2--2--2---2---2---0
g-0--0--0---0---0---0
d-2--2--2---2---2----
a-0--0--0---0---0----
e--------------------

SOLO!

e-0----0-0---0--0---0-----0-------0--0--0---0--0--0---------------------
b-3t5--5-5---5--0---8b1/4-8b1/4---5--5--3t5-5--5--5\3-0-----------------
g-------------------------------------------------------2b1/2t0---------
d----------------------------------------------------------------2t0-0t2
a-----------------------------------------------------------------------
e-----------------------------------------------------------------------

solo cont.

e-0-------0------0-0--0---0-----0------0---0--0--0-----------------------
b----3t5--5------5-5--0---8b1/4-8b1/4--5---5--5--0--------12-------------
g---------------------------------------------------14b1-----14b1--12----
d----------------------------------------------------------------------14
a------------------------------------------------------------------------
e------------------------------------------------------------------------

solo cont.

e---------------------------12---12-----12-------12--------12------12------12
b-------12------------------15b1-15b1-------15b1-12--------12------12------12
g-------12--------------------------------------------14b1----14b1----14b1---
d-12t14----14-12-14----14\---------------------------------------------------
a----------------------------------------------------------------------------
e----------------------------------------------------------------------------

solo cont.

e--------------------------------------------------------------------------
b----------------------------------------12-12----12b1/2-12-----------12---
g-14b1--12--14------12t14--12b1----------12-12----12b1---12-----------12---
d---------------14--------------14t12----------14-----------14--12t14----14
a-------------------------------------14-----------------------------------
e--------------------------------------------------------------------------

solo cont.

e-------------0---------------------------------------------------0
b-12b1/2--12--0--------12--------------------12-------------------0
g-12b1----12--0---14b1----14b1-12------------12-------------------0
d---------------------------------14--12--14------14--12--14---14--
a------------------------------------------------------------------
e------------------------------------------------------------------

solo cont.

e--------------------------------------------
b-------15-----------------------------------
g-14b1-----14b1-12---------------------------
d------------------14--12---------------12/14
a-------------------------14--12--10t11------
e--------------------------------------------

verse 3 thingy
e-x
b-x
g-x
d-x
a-x
e-0(play for ten measures, then play regular verse)

lil pre-chorus in there

e----------------3-----------0--0----------------------------------------
b-3----3-----3---2-----------0--0----------------------------------------
g-2----2-----0---2----0--0---1--1----------------------------------------
d-0----0-----0---2----2--2---2--2------7---7-----4----2-------------7---7
a----------------0----2--2---2--2------5---4-----2----0-------------5---4
e----------------------------0--0-------------------------2b1/2--0-------

pre-chorus cont.

e--------------------
b--------------------
g-------------------1
d-4-----------------2
a-2---0--4--5--7\---2
e----------------0--0

outro(where they start going looooooooooove)

e-------------------------------------------------------0---0---0--------------
b-------------------------------------------------------3b1-3b1---3b1--0--0----
g-------------------------------------------------------------------------3b1/2
d-7---7-----4--2---------------------------------------------------------------
a-5---4-----2--0------------5----4----2---0------------------------------------
e----------------2b1/2-0----------------------2b1/2--0-------------------------

outro cont.

e-0---0--------------------
b--------------------------
g---2---2--2/4------------4
d---------------4b1/2--2--2
a-------------------------2
e-------------------------0

and thats it! n e comments, just place em in the comment section
i check pretty regularly:-D email me with n e questions
(supersk8er787@usapathway.com)this song is sweet, God bless, Josh B.

Comments about this tab

sanctusfan14 - 2004-06-28

ok, sorry if i confused you, but t means either to hammer on or pull off, i just had a memory lapse.....sorry


Add a comment/correction

Complimentary Christian Ringtones
Dadamobile and CGR have teamed up to bring your favorite Christian artists right to your phone. Sign up today and get 10 complementary ringtones!
Tab Country
Did you know CGR has a sister site w/ country guitar tabs? Well we do! Its called Tab Country. It has a great archive with a lot of country tabs.
Rockin Tabs
Are you looking for a site that has rock guitar tabs? Then Rockintabs.com is the place for you. It is a budding site with many rock guitar tabs. Submit your tab today.
Tab Gallery
Tab Gallery has a compilation of christian, rock, and country tabs all in one place. Come visit us.