Guitar Tabs
song title    band name

Join Us Today!

Don't strum alone...
be a part of the largest online Christian music community. Browse thousands of guitar tabs and chat w/ musicians like yourself.


It's Free!

Five Iron Frenzy - Me Oh My

This tab has been rated a 3.50 out of 5 for accuracy. (2 votes)Sorry, but you must be logged in to rate this tab.
Click here to log-in, or you can click here to register.
(Registration is free)

All songs owned by corresponding publishing company. If you make copies of any song on this website, be sure to report your usage to CCLI.
Artist: Five Iron Frenzy
Song: Me Oh My
Album: All The Hype Money Can Buy
Copyright: 2000 5 Minute Walk Music
Tabbed by: Will Abraham (wonka5@hotmail.com)

This is another complex Five Iron song, but I'll do my
best to make it understandable. There are two guitar parts,
left and right. Sometimes they'll play notes and sometimes 
chords. I'll let you figure out where on the neck the chords
should be played. 

Left Guitar:

Intro:

Me oh my, 

D|-10-9-7-10-9-10-9-7------------------
A|--------------------10---------------

D|-10-9-7-10-9-10-9-7-9-10-------------
A|-------------------------------------

There's something happening in the sky.

D|-10-9-7-10-9-10-9-7------------------
A|--------------------10---------------

D|-10-9-7-10-9-10-9-7-9-10-------------
A|-------------------------------------


Verse 1:
E|-12----13-12-------13------------
   I see my favorite face,
E|-----------12-15-----------------
   It chokes me up so fiercely,
E|--13-12--------------13---12-----
   And I'm filled with your light,
E|-------------15---13-------------
   Soaked with your grace,
E|------------12--15---------------
   I'll dance all night,
   I've got to say goodbye.


Pre-chorus:

A C A D E C E A D A G


Chorus:

F       G         C         E      F G
There's something happening in the sky,
A     G   F
Me oh my!
G                 C             E       F G
I recall that I'm yours now I'm feeling fine,
C     G          C
Me oh my, you're mine.


Verse 2:
E|-12-----13-12-----13-----------------------
   I sense a coming reign,
E|--------12-15------------------13-12-------
   A hand to hold the nations up in peace,
E|---------13-12----------------15---13------
   The sun smiles down and warms our hearts, 
E|--------12-15------------------------------
   It's happening in the sky.


Bridge:

E G C A 
E G D C
A E A C 
E   G

(Stop drums)

D|------------7------------------------
A|---7-10-7-8---10---7-10-7-8-7--------
E|-8---------------8------------10-----

D|------------7------------------------
A|---7-10-7-8---10---7-10-7-8----------
E|-8---------------8------------10-8---

Repeat Pre-chorus, then Chorus, then Intro


Right Guitar:

Intro:

Me oh my, 

G F A G F G
G F A G F G E

There's something happening in the sky.

G F A G F G
G F A G F G E

Verse 1:
E     F  E     G  F
I see my favorite face,
          E  G     
It chokes me up so fiercely,
 F  E               F    E
And I'm filled with your light,
            G    F
Soaked with your grace,
           E   G
I'll dance all night,

I've got to say goodbye.


Pre-chorus:

C slide to A C A D 

B|-12-13-12-10----------------------
G|-------------10-9-7---------------


Chorus:

B|-10--------8-------------------9------10-8-10----8--
     There's something happening in the sky, Me oh my!

B|-------8---------------------------9-------10-8-----
G|-10-------------------------------------------------
     I recall that I'm yours now I'm feeling fine,

G|---10-9--7------------------------------------------
D|-------------9------10------------------------------
     Me oh my, you're mine.


Verse 2:
E       F E    G F
I sense a coming reign,
       E  G                   F  E
A hand to hold the nations up in peace,
        F      E              G   F
The sun smiles down and warms our hearts, 
        E  G
It's happening in the sky.


Bridge:

E|------------7-8-7---7------------
B|------------------8---8----------
G|-9-7-9-7-10-------------9-7------

Then a C power chord, silence, another C 

Then slide in from the C to the Pre-chorus A

Repeat Pre-chorus, then Chorus, then Intro

Comments about this tab

No comments/corrections found. Add your own

Complimentary Christian Ringtones
Dadamobile and CGR have teamed up to bring your favorite Christian artists right to your phone. Sign up today and get 10 complementary ringtones!
Tab Country
Did you know CGR has a sister site w/ country guitar tabs? Well we do! Its called Tab Country. It has a great archive with a lot of country tabs.
Rockin Tabs
Are you looking for a site that has rock guitar tabs? Then Rockintabs.com is the place for you. It is a budding site with many rock guitar tabs. Submit your tab today.
Tab Gallery
Tab Gallery has a compilation of christian, rock, and country tabs all in one place. Come visit us.