Guitar Tabs
song title    band name

Join Us Today!

Don't strum alone...
be a part of the largest online Christian music community. Browse thousands of guitar tabs and chat w/ musicians like yourself.


It's Free!

This tab has been rated a 5.00 out of 5 for accuracy. (1 vote)Sorry, but you must be logged in to rate this tab.
Click here to log-in, or you can click here to register.
(Registration is free)

All songs owned by corresponding publishing company. If you make copies of any song on this website, be sure to report your usage to CCLI.
Submitted by: sanctusfan14

song:friday night
artist:slick shoes
written by:jeremiah brown, ryan kepkem joe nixon, and greg togawa

intro

e----------------------------
b----------------------------
g-2---2----2----2---2---2--2-
d-2---2----2----2---2---2--2-
a-0---0----0----0---0---0--0-
e----------------------------

verse
     p.m.........................      p.m........     p.m....
e-------------------------------------------------------------------
b-------------------------------------------------------------------
g-2----2-2--2-2-2-2-2-2-2-2-2-2-2-------------------7-----------7---
d-2--2-2-2--2-2-2-2-2-2-2-2-2-2-2---4--4-4-4-4-4-4/-7--7-7-7-7--7--0
a-0--0-0-0--0-0-0-0-0-0-0-0-0-0-0---4--4-4-4-4-4-4/-5--5-5-5-5--5--0
e-----------------------------------2--2-2-2-2-2-2/-----------------

pre-chorus
     p.m........................
e------------------------------------
b------------------------------------
g-6--------------------------------7-
d-6--6-6-6-6-6-6-6-6-6-6-6-6-6-6---7-
a-4--4-4-4-4-4-4-4-4-4-4-4-4-4-4---5-
e------------------------------------

chorus

e-------------------------------------------------------------------------
b---------------------------------------------------------5-5-5-5-5-5-5-5-
g-7--/9--9-----2--2-------------------7-------9--9------6-6-6-6-6-6-6-6-6-
d-7--/9--9-----2--2------4--4--2--2---7-------9--9------6-6-6-6-6-6-6-6-6-
a-5--/7--7-----0--0------4--4--2--2---5-------7--7------4-4-4-4-4-4-4-4-4-
e------------------------2--2--0--0-------0-------------------------------
chorus cont.
e--------------------------------------------------------------------------
b--------------------------------------------------------------------------
g-7------9--9----2--2------------------7--------9-9------2-2-2-2-2-2-2-2-2-
d-7------9--9----2--2-------4-4-2-2----7--------9-9------2-2-2-2-2-2-2-2-2-
a-5------7--7----0--0-------4-4-2-2----5--------7-7--0---0-0-0-0-0-0-0-0-0-
e-----0---------------------2-2-0-0---------0------------------------------

lil thing in verse 2(well, its actually the second half of verse 2)
  p.m..                        p.m........     p.m.............
e-------------------------------------------------------------------
b---------------------------------------------------------------10--
g--------9-<-play this----------------------7--------------------x--
d--------x-<-part 4 times--4---4-4-4-4-4-4--7--7-7-7-7-7-7-------7--
a-0--0---7-----------------4---4-4-4-4-4-4--5--5-5-5-5-5-5--0-0-----
e--------------------------2---2-2-2-2-2-2--------------------------

verse 2 cont.
  p.m.      p.m.      p.m.        p.m.........     p.m....
e-------------------------------------------------------------
b-------9-----------------------------------------------------
g-------x---------9---------9\------------------7----------7-7
d-------6---------x---------x--4--4-4-4-4-4--0--7--7-7-7-7-7-7
a-0-0-------0-0---7---0--0--7\-4--4-4-4-4-4--0--5--5-5-5-5-5-5
e------------------------------2--2-2-2-2-2-------------------

pre-chorus 2
     p.m........................       p.m........
e------------------------------------------------------------------
b------------------------------------------------------------------
g-6--------------------------------7----------------7-7-7-7-7-7-7-7
d-6--6-6-6-6-6-6-6-6-6-6-6-6-6-6---7---7-7-7-7-7-7--7-7-7-7-7-7-7-7
a-4--4-4-4-4-4-4-4-4-4-4-4-4-4-4---5---5-5-5-5-5-5--5-5-5-5-5-5-5-5
e------------------------------------------------------------------

bridge

e--------------------------------------------------------------------------
b--------------------------------------------------------------------------
g-7--7--7-7-7-7----7---7-7-7-----2--2--2-2-2-2---2-2-2-2-------------------
d-7--7--7-7-7-7----7---7-7-7-----2--2--2-2-2-2---2-2-2-2--6\-4--4--4-4-4-4-
a-5--5--5-5-5-7----5---5-5-5--0--0--0--0-0-0-0---0-0-0-0--6\-4--4--4-4-4-4-
e---------------------------------------------------------4\-2--2--2-2-2-2-

bridge cont.

e----------------------------------------------
b----------------------------------------------
g-----------------------------1----1-1---------
d--4-4---4-4-4-4--2--2--2-2-2-2----2-2--2-2-2/-
a--4-4---4-4-4-4--2--2--2-2-2-2----2-2--2-2-2/-
e--2-2---2-2-2-2--0--0--0-0-0-0----0-0--0-0-0--

interlude

e-----------------------------------------------------------------------
b-----------------------------------------------------------------------
g-7-----2-----------------7--------2---------------------7------2-------
d-7-----2----2------------7--------2----------2----------7------2------2
a-5--0--0----2------------5--------0----------2----------5---0--0------2
e------------0----------------------------0---0------------------------0

interlude cont.
             p.m........
e----------------------------------------
b----------------------------------------
g----------------------------------------
d---------2--2-2-2-2-2-2-2-2-2-2-2-2-2-2-
a---------2--2-2-2-2-2-2-2-2-2-2-2-2-2-2-
e---------0--0-0-0-0-0-0-0-0-0-0-0-0-0-0-

then play chourus twice, but at the end of second time play this
  p.m............................
e-------------------------------------
b-------------------------------------
g-2-2-2-2-2-2-2-2-2-2-2-2-2-2-2-2---2-
d-2-2-2-2-2-2-2-2-2-2-2-2-2-2-2-2---2-
a-0-0-0-0-0-0-0-0-0-0-0-0-0-0-0-0---0-
e-------------------------------------

and thats it, im sure this is 100% right, but if its not then email me with 
tips(supersk8er787@usapathway.com) this is a cool song off of the x2003 album
enjoy! Josh B

Comments about this tab

No comments/corrections found. Add your own

Complimentary Christian Ringtones
Dadamobile and CGR have teamed up to bring your favorite Christian artists right to your phone. Sign up today and get 10 complementary ringtones!
Tab Country
Did you know CGR has a sister site w/ country guitar tabs? Well we do! Its called Tab Country. It has a great archive with a lot of country tabs.
Rockin Tabs
Are you looking for a site that has rock guitar tabs? Then Rockintabs.com is the place for you. It is a budding site with many rock guitar tabs. Submit your tab today.
Tab Gallery
Tab Gallery has a compilation of christian, rock, and country tabs all in one place. Come visit us.