Guitar Tabs
song title    band name

Join Us Today!

Don't strum alone...
be a part of the largest online Christian music community. Browse thousands of guitar tabs and chat w/ musicians like yourself.


It's Free!

This tab has been rated a 1.33 out of 5 for accuracy. (9 votes)Sorry, but you must be logged in to rate this tab.
Click here to log-in, or you can click here to register.
(Registration is free)

All songs owned by corresponding publishing company. If you make copies of any song on this website, be sure to report your usage to CCLI.
Submitted by: God's_music_guy

This is one of the best songs by this alt.
\punk christian band. Although some tabs are
entered onto this website for this song, I 
found it in a different tuning. A standard tuning
for those of you who hate other tunings. I also
included the first solo (yes, there are 2).

12 stones
The way I feel
12 stones
Standard tuning
Capo:1


Intro/Verse
e|----------------|----------------|----------------|----------------|
B|----------------|----------------|----------------|--------------2-|
G|----1-----1-----|----1-----1---1-|----1-----1-----|----1-----1-----| 
D|--0---0---------|--0---0---------|--0---0---------|--0---0---------|
A|1-------1-------|----------------|----------------|----------------|
E|----------------|2-------2---2---|1-------1-------|2-------2---2---|


Chorus

Bm   G    D    A
Bm   G    A   (X2)

Solo 1

e|-------------------------------------------------------------------
B|-------------------------------------------------------------------
G|-----------6--7--9--7/6--7p6---------------------7-----7/6---------
D|--9--7--9---------------------7-------7-----7h9-----9--------------
A|---------------------------------7h9-----9-------------------------
E|-------------------------------------------------------------------

Order

Intro (play x2)
Verse (play x4)
Chorus
Verse2(play x4)
Solo 1
Solo 2
Chorus

Thats pretty much it. I'll try to include the second solo as soon as possible
Jesus Loves You!
-Bryan

Comments about this tab

danny_meier - 2004-06-23

dude, 12 stones plays in drop c, so you might want to go back and redo that solo. it doesn't matter if you don't like the tuning, you shouldn't give people the wrong tabs. buy the tab book.
no offense,
Danny


njsk8rboy - 2004-07-05

in the tab book twif is in drop d tuning


Drew Peterson - 2004-07-08

if you play the song on the guitar while you are listening to the song, you will realize it is in dropc. So there. Those books never give you the real tab, just a slight variation.


shanester - 2004-07-25

For real dude, It seems like tab books are just to give you the idea of how to play the song, but not the actual rythyms.


njsk8rboy - 2004-07-28

ya i usually play it in drop c anyhow and the solo is alot easier than u guys made it


leecho0 - 2005-01-14

btw, I hate alternate tuning also, so here's for the folks like me too
the intro should be


Intro/Verse
e|--------------|----------------|----------------|----------------|
B|--------------|----------------|----------------|--------------3-|
G|----2-----2---|----2-----2---2-|-----2-----2----|----2-----2-----|
D|--0---0-------|--0---0---------|---0---0--------|--0---0---------|
A|2-------2---2-|----------------|-2-------2----2-|----------------|
E|--------------|3-------3---3---|----------------|3-------3---3---|


guitarcordfreak - 2006-07-16

I am like u. I hate alternate tunning. thanks!


anesthetize7 - 2008-04-24

Thanks for the intro leecho0!


Add a comment/correction

Complimentary Christian Ringtones
Dadamobile and CGR have teamed up to bring your favorite Christian artists right to your phone. Sign up today and get 10 complementary ringtones!
Tab Country
Did you know CGR has a sister site w/ country guitar tabs? Well we do! Its called Tab Country. It has a great archive with a lot of country tabs.
Rockin Tabs
Are you looking for a site that has rock guitar tabs? Then Rockintabs.com is the place for you. It is a budding site with many rock guitar tabs. Submit your tab today.
Tab Gallery
Tab Gallery has a compilation of christian, rock, and country tabs all in one place. Come visit us.