Guitar Tabs
song title    band name

Join Us Today!

Don't strum alone...
be a part of the largest online Christian music community. Browse thousands of guitar tabs and chat w/ musicians like yourself.


It's Free!

This tab has been rated a 5.00 out of 5 for accuracy. (2 votes)Sorry, but you must be logged in to rate this tab.
Click here to log-in, or you can click here to register.
(Registration is free)

All songs owned by corresponding publishing company. If you make copies of any song on this website, be sure to report your usage to CCLI.
Submitted by: Cradleinking102

Who Is Like You
The Micah Tawlks Band

intro...

GUITAR 1
    A                  B               F#     D
e------------------------------------------------------
B------------------------------------------------------
G---2--2--x--2--2-x---4--4-x--4--4-x----------7--------
D---2--2--x--2--2-x---4--4-x--4--4-x---4------7-8x-----
A---0--0--x--0--0-x---2--2-x--2--2-x---4-8x---5--------
E--------------------------------------2---------------

Second time through play it all open without the chops at the beginning 

GUITAR 2
Come in on F#
e----------------------------------------------------
B-------------------------------------------------
G--13-------14---------------------------------------
D---x---8x--x---8x---------------------------------------
A--11-------12-----------------------------------------
E----------------------------------------------------

e---------------------------------------------
B---------------------------------------------
G---6-------9------13------14-----------------
D---x-8x----x-8x----x-8x----x—8x--------------
A---4-------7------11------12-----------------
E---------------------------------------------

Verse...

e---------------------------------------------
B---------------------------------------------
G----2-2---2-2-----------7-7~~~~--------------
D----2-2---2-2----4--4---7-7~~~~--------------
A----0-0---0-0----4--4---5-5~~~~--------------
E-----------------2--2------------------------

Repeat
    F#      D     F#     D
e----2------5------2-----5--------------------
B----2------5------2-----5--------------------
G----2------7------2-----7--------------------
D----4------7------4-----7--------------------
A----4------5------4-----5--------------------
E----2------5------2-----5--------------------
Let notes ring

Chorus... is the same as the intro except you play all the notes choppy. 

After the chorus play the second part of the intro were none of its choppy 
and guitar 2 plays the second part of it's intro

repeat verse and chorus

bridge...

the same as the second part of the chorus, but on the second part of the
bridge play Bm F# D

That’s pretty much it, go back to the chorus and end with the intro

Comments about this tab

travisholtzclaw - 2006-05-10

dude I just listened to the cd and I found all the chord and you are 100% right these are the same chords that heard great job dude.


musician4gsus07 - 2006-09-26

Just a curteous side note: but for those who are just begining, and you want to play the FULL Chord, make that "B" a "Bm" that way you have a D natural in it.
Good Tab.


musician4gsus07 - 2006-09-26

oops...as well as the F#...its F#m, I always had trouble distinguishing the two, so, just letting you guys know. But again, Good Tab


Add a comment/correction

Complimentary Christian Ringtones
Dadamobile and CGR have teamed up to bring your favorite Christian artists right to your phone. Sign up today and get 10 complementary ringtones!
Tab Country
Did you know CGR has a sister site w/ country guitar tabs? Well we do! Its called Tab Country. It has a great archive with a lot of country tabs.
Rockin Tabs
Are you looking for a site that has rock guitar tabs? Then Rockintabs.com is the place for you. It is a budding site with many rock guitar tabs. Submit your tab today.
Tab Gallery
Tab Gallery has a compilation of christian, rock, and country tabs all in one place. Come visit us.