Guitar Tabs
song title    band name

Join Us Today!

Don't strum alone...
be a part of the largest online Christian music community. Browse thousands of guitar tabs and chat w/ musicians like yourself.


It's Free!

This tab has been rated a 5.00 out of 5 for accuracy. (4 votes)Sorry, but you must be logged in to rate this tab.
Click here to log-in, or you can click here to register.
(Registration is free)

All songs owned by corresponding publishing company. If you make copies of any song on this website, be sure to report your usage to CCLI.
Submitted by: Cradleinking102

I Want To Know You
The Micah Tawlks Band

intro...

guitar 1
   Emadd9      Cadd9
e----3-----------3-------3--------3----------------------------------
B----3-----------3-------3--------0----------------------------------
G----0-----------0-------0--------0-----------------------------------
D----2-----------2-------2--------2-----------------------------------
A----2-----------3-------2--------3-----------------------------------
E----0-----------x-------0--------x-------------------------------------

Guitar 2 with delay
e-----------------------------------7---------------------
B-----7\\\\3/////8----7\\\\3////8------------------------
G--------------------------------------------------------
D--------------------------------------------------------
A--------------------------------------------------------
E---------------------------------------------------------
   Hold note and slide slow and smooth

Verse...

Guitar 1
Em Cadd9 
Em Cadd9
G  D Asus Cadd9

repeat

Guitar 2: same as intro, but when it gets to the last Cadd9 go...

e---------------------------------------------------------
B---3//5\\3----------------------------------------------
G--------------------------------------------------------
D--------------------------------------------------------
A--------------------------------------------------------
E---------------------------------------------------------

Chorus...

G  Asusadd9  Emadd9  Cadd9
Repeat

Repeat verse and chorus

Bridge...

D/F#  Emadd9  D/F#  Cadd9

Repeat 3 times
End on D/F#

Back to chorus


 chords... 

  Gadd9   D/F#   Asusadd9

e-----3------3------3----------------------------------------------
B-----3------3------3----------------------------------------------
G-----0------2------2----------------------------------------------
D-----0------0------2----------------------------------------------
A-----2------0------0----------------------------------------------
E-----3------2------x----------------------------------------------

Comments about this tab

Cradleinking102 - 2004-07-02

sorry....on the chorus there is a Din between G and Asus...
-Davie


Prayerful05 - 2004-11-04

Did you find the tabs for this song on your own? I'm looking for the chords or tabs for the Micah Tawlks Band's song, "Here Am I Lord." Or do you know of any links on the internet or where I could find back up for this band? Thanks!! God bless!!!~<><


jguitar08 - 2005-03-06

I don't play it with the D/F# and it kinda sounds better. Just my preference.


Joseph352 - 2005-10-14

hey, if you listen to the cd real closely, the chorus goes G Am Em C2. At least that's what I heard from listening to the cd.


Add a comment/correction

Complimentary Christian Ringtones
Dadamobile and CGR have teamed up to bring your favorite Christian artists right to your phone. Sign up today and get 10 complementary ringtones!
Tab Country
Did you know CGR has a sister site w/ country guitar tabs? Well we do! Its called Tab Country. It has a great archive with a lot of country tabs.
Rockin Tabs
Are you looking for a site that has rock guitar tabs? Then Rockintabs.com is the place for you. It is a budding site with many rock guitar tabs. Submit your tab today.
Tab Gallery
Tab Gallery has a compilation of christian, rock, and country tabs all in one place. Come visit us.