Guitar Tabs
song title    band name

Join Us Today!

Don't strum alone...
be a part of the largest online Christian music community. Browse thousands of guitar tabs and chat w/ musicians like yourself.


It's Free!

This tab has been rated a 3.53 out of 5 for accuracy. (17 votes)Sorry, but you must be logged in to rate this tab.
Click here to log-in, or you can click here to register.
(Registration is free)

All songs owned by corresponding publishing company. If you make copies of any song on this website, be sure to report your usage to CCLI.
Submitted by: p2008j

Artist: Switchfoot
Song: Dare You to Move (solo)
Tabbed by: P2008J
Standard Tuning like the song

e-00-0-0-00000000-00000000-77777777-11(fast 8x)-12(fast 8x)-------------------|
B-55-7-9-55555555-88888888-55555555-10(fast 8x)-10(fast 8x)-------------------|
G-----------------99999999----------------------------------------------------|
D-----------------------------------------------------------------------------|
A-----------------------------------------------------------------------------|
E-----------------------------------------------------------------------------|
Then it goes to the last chorus.

This 100% correct because I played it with the song

Comments about this tab

p2008j - 2004-06-20

I missptyped on one part this is the correction
e--0-0-0--0-0-0--0-0-0-0
B-101010-101010-10101010
G--9-9-9--9-9-9--9-9-9-9


MaddaCheeb65 - 2004-08-26

Great tab. You were right, it sounds great with the song


goel - 2004-09-27

that part with 11-10 isn't 11- maybe 12 throughout, but 11 just doesn't sound right- other than that, AWESOME tab


Chrishawk4 - 2004-10-16

This tab is perfect with that correction with the 9 and 10


jsoccer - 2004-10-27

perfect


dustman2007 - 2004-11-19

It's pretty good except for the last chord. Try this for the last one:

b--16--
g--17-- bend the 17. This is exactly what he plays.


jsoccer - 2004-12-07

dustman the music video shows exactlly what you said. great


GavMaster321 - 2005-01-01

Can someone please make a final complete tab for the solo.


God bless


Soccer Bob - 2005-01-03

Hey are you guys sure that there even is that 10/11 and 10/12 part in there? cause at the very end.. i don't even hear a change at all.. sounds like he just does the bend after the 7/5... correct me if i'm wrong.. cause i'm kinda new.. but thats just what i got. God Bless


rock4christ08 - 2005-01-18

aww......this tab's okay.....jk..this tab's awesome, great job foo. it sounds perfect. w/ corrections - ray


Abnormwarm - 2005-02-23

I agree, could you tab out a finnished product,'cause im confused : ) lol


matt j t - 2005-05-02

This is how I hear it
with the tab,some of the corrections above, and my opinion:

e-00-0-0-00000000--0--0--0--0--0--0--0--0----77777777--11b-|
B-55-7-9-55555555--10-10-10-10-10-10-10-10---55555555------|
G------------------9--9--9--9--9--9--9--9------------------|
D----------------------------------------------------------|
A----------------------------------------------------------|
E----------------------------------------------------------|

That's just a guess and i'm not that good a figuring out songs.

The 0's, 10's, and 9's are spaced out just so it's easier to read.


supaduk - 2005-08-13

Great work guys, but on the last note, try 3/2, it really gives the song that beautiful touch, if ya know what i mean..............


supaduk - 2005-08-28

Hey guys, I been playing this song an aweful lot lately and I think that the best way to finish the solo is to still go with the 2/3, but also bend the 3rd string at the same time while letting rip a 7/9 - got it, great, I knew ya would!


coolcowboy - 2006-02-05

OK I play and sing an extremely accurate version of this song and have for a very long time now and I seriously think the solo from the way it sounds on the cd goes like this:
e|-0--------0--------0--------0--------0---------------|
B|-5-(10x)-/9-(10x)-/12-(10x)-12-(5x)--14b-(10x)-------|
G|-4-------/8-------/11--------------------------------|
D|-----------------------------------------------------|
A|-----------------------------------------------------|
E|-----------------------------------------------------|
Note: bend that string up high. If you pick as fast as they are on the cd it sounds really good! I garuntee it. After listening to this song for the last two years and have watched the videos of them playing and watching them play it in a studio it's very clear to me how it sounds. If you don't think so or have comments about it email me at Horseriderbud@aol.com.

/= slide
b= bend


guitarmaster2 - 2006-03-16

you are all wrong this is the one...

--0--0--0-0-0-0-0-0-0-0-0-0-0-0-0-0--0-----------------
-12-12-12/5-5-5/9-9-9/5-5-5/7-7/5-5/10<--(x15)---------
-------------------------------------------------------
-------------------------------------------------------
-------------------------------------------------------
-------------------------------------------------------

it sounds better i think. God Bless


Add a comment/correction

Complimentary Christian Ringtones
Dadamobile and CGR have teamed up to bring your favorite Christian artists right to your phone. Sign up today and get 10 complementary ringtones!
Tab Country
Did you know CGR has a sister site w/ country guitar tabs? Well we do! Its called Tab Country. It has a great archive with a lot of country tabs.
Rockin Tabs
Are you looking for a site that has rock guitar tabs? Then Rockintabs.com is the place for you. It is a budding site with many rock guitar tabs. Submit your tab today.
Tab Gallery
Tab Gallery has a compilation of christian, rock, and country tabs all in one place. Come visit us.