Guitar Tabs
song title    band name

Join Us Today!

Don't strum alone...
be a part of the largest online Christian music community. Browse thousands of guitar tabs and chat w/ musicians like yourself.


It's Free!

This tab has been rated a 5.00 out of 5 for accuracy. (2 votes)Sorry, but you must be logged in to rate this tab.
Click here to log-in, or you can click here to register.
(Registration is free)

All songs owned by corresponding publishing company. If you make copies of any song on this website, be sure to report your usage to CCLI.
Submitted by: onlythexclouds

Band: Nodes of Ranvier
Song: It's Going to Be OK
Album: Lost Senses, More Innocence
Tuning: Drop D  (high to low)  E B G D A D
Tabbed By: Luke Hopper

This is a really great song. Probably the best hardcore related intsrumental
I've ever heard. Definatly a good song to play during worship or some such.


 Guitar 1/Part 1  (Clean)
E|----------------------------------------------------------------------|
B|----------------------------------------------------------------------|
G|----------------------------------------------------------------------|
D|-------6-7-----6-4-----2-4-----2-0-----9-11-----9-7-----4-6-----4-2---|
A|-----4-------4-------0-------0-------7--------7-------2-------2-------|
D|---4-------4-------0-------0-------7--------7-------2-------2---------|


 Guitar 2/Part 1 (Clean) (Dubbed into recording)   (Distortion) Do this end
E|------------------------------------------------|-----------| part later on
B|------------------------------------------------|-----------| at the end of
G|---4-6---4-2-------------7-9---7-6--------------|-----------| Guitar 3's
D|---6-7---6-4--6-7---6-4--9-11--9-7--7-9---7-6---|---5>-4>---| little solo
A|--------------7-9---7-5-------------9-11--9-7---|---5>-4>---| deal
D|------------------------------------------------|---5>-4>---|


 Guitar 3/Part 1  (Distortion)
E|------------------------------------------------------------------|
B|------------------------------------------------------------------|
G|------------------------------------------------------------------|
D|---------------------------------4>-------------------------------|
A|---4>/7-5>--4p2h4>--2p0h2>-------4>/7-5>--7h9p7>--7h9/11>/12\11---|
D|----------------------------7-6--4>-------------------------------|

E|----------------------------------------------------------------------------
B|----------------------------------------------------------------------------
G|----------------------------------------------------------------------------
D|----------------------------------------------------------------------------
A|12-11-12-7-4-7-6-4--12-11-12-7-4-7-6-4--12-11-12-7-4-7-6-4-11-9-11-7-4-7-6-4
D|----------------------------------------------------------------------------

E|--------------------------------------------------------------------|
B|--------------------------------------------------------------------|
G|--------------------------------------------------------------------|
D|--------------------------------------------------------------------|
A|---12-11-12-7-4-7-6-4--12-11-12-14-17-16-14-12-12-11-12-7-4-7-6-4---|
D|--------------------------------------------------------------------|

E|---------------------------------------------------------------------------|
B|------------*--------------------------------------------------------------|
G|------7-----6--------------------------------------------------------------|
D|----5-----4----------4-5-----4-2-----7-9-----7-5-----2-4-----2-0-----4-5/7>|
A|--5----------------2-------2-------5-------5-------0-------0-------2-----5>|
D|5-----4--(Pinch)-2-------2-------5-------5-------0-------0-------2---------|

If you have some kind of flanger thing its good to put it on that last note


  Both Guitars play this 2x
E|-----------|---------------------------------------------------------------|
B|--(Intro)--|---------------------------------------------------------------|
G|-----------|---------------------------------------------------------------|
D|---0-0-0---|---7--7--7--7-7-7-7-6-6--6-4-4-4--4--4--4--4-4-4-4-2-2--2-0-0-0|
A|---0-0-0---|---4--4--4--4-4-4-4-4-4--4-4-4-4--0--0--0--0-0-0-0-0-0--0-0-0-0|
D|---0-0-0---|---4--4--4--4-4-4-4-4-4--4-4-4-4--0--0--0--0-0-0-0-0-0--0-0-0-0|
     . . .          .  .    . . .   .  .           .  .    . . .   .  .


E|---------------------------------------------------------------------------|
B|---------------------------------------------------------------------------|
G|---------------------------------------------------------------------------|
D|11--11--11--11-11-11-11-9--9---9-7-7-7-6--6---6---6--6--6--6--7--6--6-6-6-6|
A|7---7---7---7--7--7--7--7--7---7-7-7-7-2--2---2---2--2--2--2--2--2--2-2-2-2|
D|7---7---7---7--7--7--7--7--7---7-7-7-7-2--2---2---2--2--2--2--2--2--2-2-2-2|
      .   .      .  .  .     .   .          .   .      .  .  .     .  .


 Then Guitar 2 keeps playing that above part and Guitar 1 does this
E|--------------------------------------------------------------------|
B|--------------------------------------------------------------------|
G|--------------------------------------------------------------------|
D|---6/7-7--7--7-7-7-7-6-6--6-4-4-4--2/4-4--4--4-4-4-4-2-2--2-0-0-0---|
A|---4---4--4--4-4-4-4-4-4--4-4-4-4--0---0--0--0-0-0-0-0-0--0-0-0-0---|
D|---4---4--4--4-4-4-4-4-4--4-4-4-4--0---0--0--0-0-0-0-0-0--0-0-0-0---|
         .  .    . . .   .  .            .  .    . . .   .  .

E|---------------------------------------------------------------------------|
B|---------------------------------------------------------------------------|
G|---------------------------------------------------------------------------|
D|9/11-11--11--11-11-11-11-12-11--11-11-11-11-4/6--6--6--6-6-6-6-7-6--6-6-6-6|
A|7----7---7---7--7--7--7--7--7---7--7--7--7--2----2--2--2-2-2-2-2-2--2-2-2-2|
D|7----7---7---7--7--7--7--7--7---7--7--7--7--2----2--2--2-2-2-2-2-2--2-2-2-2|
           .   .     .  .  .      .   .            .  .    . . .   .  . 


  Guitar 1/Part 3  (You can do little variations on that end part)
E|----------------------------------------|
B|-------------------7--7-5/7-7-7/8\7-7---|
G|---------*------------------------------|
D|-------6-7-----0>--4--4-2/4-4-4/5\4-4---|
A|-----4---------0>-----------------------|
D|---4--(Pinch)--0>-----------------------|


 Guitar 2/Part 3 
E|-------------|
B|-------------|
G|---11---6>---|
D|---11---7>---|
A|---12---9>---|
D|-------------|


I'm pretty sure that's all right. If anyone has any questions, comments, or
corrections please email me at surfbas77@lycos.com

God Bless

Comments about this tab

Rock_4_god_365 - 2005-06-03

this tab is awesome, do more! NODES ROCK!


internalflames - 2006-01-03

hey, can anyone out there tab Number Four off of the Self titled album. i really love that song and would like to play it with a buddy of mine, but ive tried and cant figure out all the chords and the arpeggios that the piano does. that would be great

there needs to be somebody who tabs more Nodes cuz they ROCK!!!


Add a comment/correction

Complimentary Christian Ringtones
Dadamobile and CGR have teamed up to bring your favorite Christian artists right to your phone. Sign up today and get 10 complementary ringtones!
Tab Country
Did you know CGR has a sister site w/ country guitar tabs? Well we do! Its called Tab Country. It has a great archive with a lot of country tabs.
Rockin Tabs
Are you looking for a site that has rock guitar tabs? Then Rockintabs.com is the place for you. It is a budding site with many rock guitar tabs. Submit your tab today.
Tab Gallery
Tab Gallery has a compilation of christian, rock, and country tabs all in one place. Come visit us.