Guitar Tabs
song title    band name

Join Us Today!

Don't strum alone...
be a part of the largest online Christian music community. Browse thousands of guitar tabs and chat w/ musicians like yourself.


It's Free!

This tab has been rated a 5.00 out of 5 for accuracy. (5 votes)Sorry, but you must be logged in to rate this tab.
Click here to log-in, or you can click here to register.
(Registration is free)

All songs owned by corresponding publishing company. If you make copies of any song on this website, be sure to report your usage to CCLI.
Submitted by: scheller

Inside Outside
Delirious?
Album: World Service
Words and Music by Martin Smith and Stuart Garrard
Copyright: 2003 Curious? UK

Transcribed by scheller  sonnyschell@hotmail.com

Notes:
I've made a valiant attempt to tab this song note for note. It was pretty hard
to say the least but I've done my best to get it right. There are a few parts
later in the song where a second guitar comes in and plays pretty high up on 
the neck on the e/B strings.  Where I could decipher what each was playing, 
I did, but where I couldn't hear what the first guitar was playing, I had to 
combine what I could hear and try to tab it so that it is still playable. I 
primarily used Transcribe! software, Powertab Editor, the album version of 
this song and the music video helped on a few parts (Em9).  This is a pretty 
long tab because I've done it note for note. Notes in parenthesis are played 
lightly.

Get the Powertab for the song here:
http://www.christianguitar.org/forums/showthread.php?p=1380126#post1380126


All guitars are tuned down 1/2 step (Eb Ab Db Gb Bb Eb)
Chord names based on shape and position, not tuning.

G     355433
Bm    799777
Em9   07577x
Gvii  xx9787

Intro
  Gtr I
|--------------|----------------|----------------|-----------------|
|--7----7----7-|-----5---5----5-|-----8---8----8-|-------8----8----|
|-----7----7---|-7\5---6----6---|-6/7---7----7---|-----7----7----7-|
|--------------|----------------|----------------|-----------------|
|--------------|----------------|----------------|-----------------|
|--------------|----------------|----------------|-----------------|


|---------------|---------------|----------------|---------------------||
|-7----7----7---|---5----5----5-|-----8---8----8-|-------8---10-8-7-8--||
|----7----7---7\|-6----6----6---|-6/7---7----7---|-----7---7-----------||
|---------------|---------------|----------------|---------------------||
|---------------|---------------|----------------|---------------------||
|---------------|---------------|----------------|---------------------||


 Verses 1,2
|---------------|---------------|----------------|------------------|
|-7----7----7---|---5----5----5-|-----8---8----8-|-------8----8-----|
|----7----7---7\|-6----6----6---|-6/7---7----7---|-----7----7----7--|
|---------------|---------------|----------------|------------------|
|---------------|---------------|----------------|------------------|
|---------------|---------------|----------------|------------------|


|---------------|---------------|----------------|----------------------|
|-7----7----7---|---5----5----5-|-----8---8----8-|-------8---/10p8-7h8--|
|----7----7---7\|-6----6----6---|-6/7---7----7---|-----7---7------------|
|---------------|---------------|----------------|----------------------|
|---------------|---------------|----------------|----------------------|
|---------------|---------------|----------------|----------------------|


|---------------|---------------|----------------|----------------------|
|-7---7----7----|---5----5----5-|-----8---8----8-|-------8---/10p8-7h8--|
|---7----7----7\|-6----6----6---|-6/7---7----7---|-----7---7------------|
|---------------|---------------|----------------|----------------------|
|---------------|---------------|----------------|----------------------|
|---------------|---------------|----------------|----------------------|


|----------------|----------------|----------------|----------------------||
|-7---7---7----7-|-----5---5----5-|-----8---8----8-|-------8---/10p8-7h8--||
|---7---7----7---|-7\5---6----6---|-6/7---7----7---|-----7---7------------||
|----------------|----------------|----------------|----------------------||
|----------------|----------------|----------------|----------------------||
|----------------|----------------|----------------|----------------------||


 Pre-Chorus 1
|-7-------7-7---|-----7-----7----|------7--------|---10--9----------|
|----8--8-----8-|--------8-----8-|-7--7----7---7-|-8--------10--10--|
|---------------|----------------|-----------7---|------------------|
|---------------|----------------|---------------|------------------|
|---------------|----------------|---------------|------------------|
|---------------|----------------|---------------|------------------|


|-----7-----(7)-|----------------|------------|-------------7----||
|-8------8------|-(8)----8-7---7-|------------|-------7-5-7---7--||
|---------------|------------9---|------------|------------------||
|---------------|----------------|------------|------------------||
|---------------|----------------|------------|------------------||
|---------------|----------------|------------|------------------||


 Chorus 1
|-10----10------10-|-------7-------7-|------7-----10-|------10-----10-----|
|-----------7------|-8-------8-------|-8--8----8-----|----------8------8--|
|-----7-------7----|---9-9-----9-9---|---------------|--------------------|
|------------------|-----------------|---------------|--------------------|
|------------------|-----------------|---------------|--------------------|
|------------------|-----------------|---------------|--------------------|


|------7--------|---------7-------|-7---10-7-----7-|-------10-7--------||
|---------7---7-|-----8-------8---|---8-------8----|-----8-------8--8--||
|-7--7------7---|-7/9---9---9---9-|----------------|-------------------||
|---------------|-----------------|----------------|-------------------||
|---------------|-----------------|----------------|-------------------||
|---------------|-----------------|----------------|-------------------||


 Interlude
|----------|------------------|-----------|---------------||
|-7--------|--------10/8--7/8-|-7---------|---------------||
|----------|------------------|-----7-----|----7/9\7------||
|----------|------------------|-----------|----------7----||
|----------|------------------|-----------|---------------||
|----------|------------------|-----------|---------------||


 Verse 3
|-------------|----------------|----------------|---------------------|
|--7----7-----|-----5---5----5-|-----8---8----8-|-------8---10---8----|
|-----7----7--|-7\5---6----6---|-6/7---7----7---|-----7---7----7---7--|
|-------------|----------------|----------------|---------------------|
|-------------|----------------|----------------|---------------------|
|-------------|----------------|----------------|---------------------|


|---------------|---------------|----------------|---------------------||
|-7--7---7--7---|---5----5----5-|-----8---8----8-|-------8---10---8----||
|------7------7\|-6----6----6---|-6/7---7----7---|-----7---7----7---7--||
|---------------|---------------|----------------|---------------------||
|---------------|---------------|----------------|---------------------||
|---------------|---------------|----------------|---------------------||


 Pre-Chorus 2
|-7--7-----7-7---|-----7------10-7-|---------7--7---|---10--9--------|
|------8-8-----8-|-8-------8-------|---7---7------7-|----------10----|
|----------------|---7---7---------|-7---7----------|-7--------------|
|----------------|-----------------|----------------|----------------|
|----------------|-----------------|----------------|----------------|
|----------------|-----------------|----------------|----------------|


|------7-----(7)-|-------7---------|--------------|---------------------||
|-8--8----8------|---------8p7---7-|-8p7---7------|---------------------||
|----------------|-------------9---|-----9------7-|---------------------||
|----------------|-----------------|--------------|------(9)-(7)--------||
|----------------|-----------------|--------------|---------------------||
|----------------|-----------------|--------------|---------------------||


 Chorus 2
|------5--------|-------7------7-|-------10--------|-----10--9---------|
|-7-------7---7-|-8-------8------|-8---8-----8---8-|------------10-----|
|----7------7---|---9-9------9---|---7---------7---|----------------7--|
|---------------|----------------|-----------------|-------------------|
|---------------|----------------|-----------------|-------------------|
|---------------|----------------|-----------------|-------------------|


|------5--------|-------7--------|-------10--------|-----14--12--10----|
|-7-------7---7-|-8--------8---8-|-8---8-----8---7-|-------------------|
|----7------7---|---9-9------9---|---7---------7---|-------------------|
|---------------|----------------|-----------------|-------------------|
|---------------|----------------|-----------------|-------------------|
|---------------|----------------|-----------------|-------------------|


|------5----5---|-------10--------|---10------10----|-----10--9--------|
|-7-------------|-8---8-----8---8-|-------8-------8-|------------10----|
|----7----7---7-|---9---------9---|-7-------7-------|------------------|
|---------------|-----------------|-----------------|------------------|
|---------------|-----------------|-----------------|------------------|
|---------------|-----------------|-----------------|------------------|


|------5-------|-------7--------|-----10-10------10-|----------10---------||
|-7-------7----|-7--------7---7-|-8----------8------|------8-------8---8--||
|----7-------7-|---9-7------7---|---7----------7----|--------7-------7----||
|--------------|----------------|-------------------|---------------------||
|--------------|----------------|-------------------|---------------------||
|--------------|----------------|-------------------|---------------------||


   Bridge
    G                                   Bm
||------7-------7---|-----7-------7---|-----7-------7---|-----7-------7---|
||o---8---8---8---8-|---8---8---8---8-|---7---7---7---7-|---7---7---7---7-|
||--7-------7-------|-7-------7-------|-7-------7-------|-7--------7------|
||------------------|-----------------|-----------------|-----------------|
||o-----------------|-----------------|-----------------|-----------------|
||------------------|-----------------|-----------------|-----------------|
|
|   Gtr II
||------3-----------|-----------------|-----------------|-----------------|
||o-----3-----------|-----------------|-----7-----------|-----------------|
||------4-----------|-----------------|-----7-----------|-----------------|
||------5-----------|-----------------|-----9-----------|-----------------|
||o-----5-----------|-----------------|-----9-----------|-----------------|
||--3---------------|-----------------|-7---------------|-----------------|
|
|   Gtr III
||--7---------------|-----------------|-/10-------------|-----------------|
||o-8---------------|-----------------|-/12-------------|-----------------|
||------------------|-----------------|-----------------|-----------------|
||------------------|-----------------|-----------------|-----------------|
||o-----------------|-----------------|-----------------|-----------------|
||------------------|-----------------|-----------------|-----------------|



  1st ending
  G                                   Bm
|-----7-------7---|-----7-------7---|-----7-------7---|-----7-------7-----||
|---8---8---8---8-|---8---8---8---8-|---7---7---7---7-|---7---7---7---7--o||
|-7-------7-------|-7-------7-------|-7-------7-------|-7--------7--------||
|-----------------|-----------------|-----------------|-------------------||
|-----------------|-----------------|-----------------|------------------o||
|-----------------|-----------------|-----------------|-------------------||
|
|-----3-----------|-----------------|-----------------|-------------------||
|-----3-----------|-----------------|-----7-----------|------------------o||
|-----4-----------|-----------------|-----7-----------|-------------------||
|-----5-----------|-----------------|-----9-----------|-------------------||
|-----5-----------|-----------------|-----9-----------|------------------o||
|-3---------------|-----------------|-7---------------|-------------------||
|
|-\7--------------|-----------------|-/10-------------|-/12---------------||
|-\8--------------|-----------------|-/12-------------|-/14--------------o||
|-----------------|-----------------|-----------------|-------------------||
|-----------------|-----------------|-----------------|-------------------||
|-----------------|-----------------|-----------------|------------------o||
|-----------------|-----------------|-----------------|-------------------||


  2nd ending
  G                                   Em9
|-----7-------7---|-----7-------7---|-----7-------7---|-----7-------7----||
|---8---8---8---8-|---8---8---8---8-|---7---7---7---7-|---7---7---7---7--||
|-7-------7-------|-7-------7-------|-7-------7-------|-7--------7-------||
|-----------------|-----------------|-----------------|------------------||
|-----------------|-----------------|-----------------|------------------||
|-----------------|-----------------|-----------------|------------------||
|
|-----3-----------|-----------------|-----------------|------------------||
|-----3-----------|-----------------|-----7-----------|------------------||
|-----4-----------|-----------------|-----7-----------|------------------||
|-----5-----------|-----------------|-----5-----------|------------------||
|-----5-----------|-----------------|-----7-----------|------------------||
|-3---------------|-----------------|-0---------------|------------------||
|
|-\7--------------|--------------7/-|-14------14------|-14------14-------||
|-\8--------------|-----------------|-----12------12--|-----12------12---||
|-----------------|-----------------|-----------------|------------------||
|-----------------|-----------------|-----------------|------------------||
|-----------------|-----------------|-----------------|------------------||
|-----------------|-----------------|-----------------|------------------||


 Breakdown
  Bm
|----------|--------------|-----------|-------------|
|----------|--------------|-----------|-------------|
|----------|--------------|-----------|-------------|
|----------|------7\5-4/5-|-4---------|-------------|
|----------|--------------|-----5-----|------7\5----|
|----------|--------------|-----------|----------5--|
|
| 
|----------|--------------|-----------|-------------|
|----------|-----10\8-7/8-|-7---------|-------------|
|-7--------|--------------|-----7-----|------9/7----|
|-9--------|--------------|-----------|----------7--|
|-9--------|--------------|-----------|-------------|
|-7--------|--------------|-----------|-------------|


|----------|--------------|-----------|-------------|
|----------|--------------|-----------|-------------|
|----------|--------------|-----------|-------------|
|----------|------7\5-4/5-|-4---------|-------------|
|----------|--------------|-----5-----|------7\5----|
|-5h7------|--------------|-----------|----------5--|
|
| 
|----------|--------------|-----------|-------------|
|----------|-----10\8-7/8-|-7---------|-------------|
|----------|--------------|-----7-----|------9/7----|
|----------|--------------|-----------|----------7--|
|----------|--------------|-----------|-------------|
|----------|--------------|-----------|-------------|


 Pre-Chorus 3
|---7--------7---|---7-----7----|---7--------7----|---10--9--------|
|-8----8---8---8-|------8-----8-|------7--------7-|----------10----|
|--------7-------|-7------------|-7------(7)------|-7--------------|
|----------------|--------------|-----------------|----------------|
|----------------|--------------|-----------------|----------------|
|----------------|--------------|-----------------|----------------|


|---7------7----|---7------7----|---7--------7----|---10------10-----|
|------8------8-|------10-----8-|------7--------7-|-------7----------|
|-7------7------|-7-------------|-7------(7)------|-7-------7-----7--|
|---------------|---------------|-----------------|------------------|
|---------------|---------------|-----------------|------------------|
|---------------|---------------|-----------------|------------------|


 Chorus 3
|----10--------10-----|-------------17----------|
|---------------------|-------------------------|
|--------11--------11-|-------12----------12----|
|-12--------12--------|-12/14----14----14----14-|
|---------------------|-------------------------|
|---------------------|-------------------------|


|----------17---------|-------------17-------|
|-------15--------15--|-------15-------15----|
|---------------------|----16----------------|
|-16h17--------17-----|----------------------|
|---------------------|-17-------17----------|
|---------------------|----------------------|


|-10----------------|-------------17----------|
|------10-----------|-------------------------|
|----------11----11-|-------12----------12----|
|-------------12----|-12/14----14----14----14-|
|-------------------|-------------------------|
|-------------------|-------------------------|


|----------17-----------|----14--12----------|
|----15-----------15----|-15---------15--12--|
|-------16-----16-------|--------------------|
|-17-----------------17-|--------------------|
|-----------------------|--------------------|
|-----------------------|--------------------|


|---------------------|-------------17----------|
|--------10-----------|-------------------------|
|---------------11----|-------12----------12----|
|-12--12-----12----12-|-12/14----14----14----14-|
|---------------------|-------------------------|
|---------------------|-------------------------|


|---------------------|----------------------|
|-------15---------15-|------15--14----------|
|-16-------16---------|----------------14----|
|----17--------17-----|----------------------|
|---------------------|----------------------|
|---------------------|----------------------|
|
| Gtr IV
|---------------------|-------------17-------|
|---------------------|----------15----------|
|---------------------|----------------------|
|---------------------|----------------------|
|---------------------|----------------------|
|---------------------|----------------------|


|-------------------------|-------------17-16-------|
|-------10-------10-------|-------12----------------|
|-11-------11----------11-|----13----13-------14-13-|
|----12-------12----12----|-12----------------------|
|-------------------------|-------------------------|
|-------------------------|-------------------------|


|----------10-----10-10-|----------10----------------||
|-12--------------------|-------------(12)----12-----||
|----12-12-----12-------|-12----12---------12----12--||
|-----------------------|----12----------------------||
|-----------------------|----------------------------||
|-----------------------|----------------------------||
|
|-----------------------|--------------17------------||
|-----------------------|----------15----------------||
|-----------------------|----------------------------||
|-----------------------|----------------------------||
|-----------------------|----------------------------||
|-----------------------|----------------------------||


 Out-Chorus
  Bm                                    GVII
  PM- - - - -|
|---------------|-----------------|----------------|-------------------|
|----7------7---|-----5----5----5-|-----8---8----8-|-----8---10p8-7----|
|-7----7--7---7/|--6-----6----6---|-6/7---7----7---|---7---7--------9--|
|---------------|-----------------|----------------|-------------------|
|---------------|-----------------|----------------|-------------------|
|---------------|-----------------|----------------|-------------------|
|
| Gtr II
|----7----------|-----------------|-----7----------|-------------------|
|----7----------|-----------------|-----8----------|-------------------|
|----7----------|-----------------|-----7----------|-------------------|
|----9----------|-----------------|-----9----------|-------------------|
|---------------|-----------------|----------------|-------------------|
|-7-------------|-----------------|----------------|-------------------|


      Bm                                 GVII
|----------------|-----------------|----------------|-------------------|
|---7-----7----7-|------5---5----5-|-----8---8----8-|------8---10p8-7-8-|
|-7-----7----7---|--7\6---6----6---|-6/7---7----7---|----7---7----------|
|----------------|-----------------|----------------|-------------------|
|----------------|-----------------|----------------|-------------------|
|----------------|-----------------|----------------|-------------------|
|
|-----7----------|-----------------|-----7----------|-------------------|
|-----7----------|-----------------|-----8----------|-------------------|
|-----7----------|-----------------|-----7----------|-------------------|
|-----9----------|-----------------|-----9----------|-------------------|
|----------------|-----------------|----------------|-------------------|
|----------------|-----------------|----------------|-------------------|



   PM- - - - - - -|
|-------------------|---------------|----------------|------5----5------|
|-------7-------7---|---5----5----5-|-----8---8----8-|--------8----8----|
|--7--7---7-7-7---7-|-6----6----6---|-6/7---7----7---|---------------7--|
|-------------------|---------------|----------------|------------------|
|-------------------|---------------|----------------|------------------|
|-------------------|---------------|----------------|------------------|


     Bm
|-----------|-----------------|-----------------|-----5-----5------|
|-7---------|------5---5----5-|------8---8----8-|--------8----8----|
|-----------|--7\6---6----6---|--6/7---7----7---|---------------7--|
|-----------|-----------------|-----------------|------------------|
|-----------|-----------------|-----------------|------------------|
|-----------|-----------------|-----------------|------------------|
|
|-----------|-----------------|-----------------|------------------|
|-----------|-----------------|-----------------|------------------|
|----7------|-----------------|-----------------|------------------|
|----9------|-----------------|-----------------|------------------|
|----9------|-----------------|-----------------|------------------|
|----7------|-----------------|-----------------|------------------|


    Bm
|-----------|----------------|------------|-------------------|
|-----------|----------------|------------|-------------------|
|-----------|----------------|------------|-------------------|
|-----------|--------7\5-4/5-|-4----------|-----7\5-(4)/(5)---|
|-----------|----------------|-------5----|-------------------|
|-----------|----------------|------------|-------------------|
|
|-----------|----------------|------------|-------------------|
|-----------|----------------|------------|-------------------|
|----7------|----------------|------------|-------------------|
|----9------|----------------|------------|-------------------|
|----9------|----------------|------------|-------------------|
|----7------|----------------|------------|-------------------|


       Bm
|---------------|----------------|---------------|-----------------|
|---------------|----------------|---------------|-----------------|
|---------------|----------------|---------------|-------------7---|
|-(4)-----------|--------7\5-4/5-|--4------------|---------7-9-----|
|--------5------|----------------|------5---/7\2-|---5-7-9---------|
|---------------|----------------|---------------|-----------------|
|
|---------------|----------------|---------------|-----------------|
|---------------|----------------|---------------|-----------------|
|------7--------|----------------|---------------|-----------------|
|------9--------|----------------|---------------|-----------------|
|------9--------|----------------|---------------|-----------------|
|------7--------|----------------|---------------|-----------------|


 Outro
|-------------------------|-------------------|
|--7------(7)-----(7)-----|--7------7-----7---|
|-------9-----(9)-----(9)-|-------9---9-9---9-|
|-------------------------|-------------------|
|-------------------------|-------------------|
|-------------------------|-------------------|
|
| Gtr IV
|-14----------------------|----14-------------|
|------17-----------------|-15----------------|
|-------------------------|-------------------|
|-------------------------|-------------------|
|-------------------------|-------------------|
|-------------------------|-------------------|


|---------9------9---|------7----9-----10--|
|-------7-----7------|---7---------7-------|
|-(9)-7-----7------7-|---------7-----7-----|
|--------------------|---------------------|
|--------------------|---------------------|
|--------------------|---------------------|
|
|-14------------14---|-(14)----------------|
|--------------------|---------------------|
|--------------------|---------------------|
|--------------------|---------------------|
|--------------------|---------------------|
|--------------------|---------------------|


|-------10--|-9-----7------7-|---------------------|---------------------|
|-----------|---7--------7---|---------------------|---------------------|
|-----------|-----7----9-----|---------------------|---------------------|
|-----------|----------------|-(9)----(9)(7)(9)----|-----(9)(7)(7)(9)----|
|-----------|----------------|-----------------(9)-|--(9)------------(9)-|
|-----------|----------------|---------------------|---------------------|
|
|-----------|----------------|--------------14-----|---------------------|
|-----------|----------------|---------------------|---------------------|
|-----------|----------------|-----11--------------|---------------------|
|-----------|----------------|-12------------------|---------------------|
|-----------|----------------|---------------------|---------------------|
|-----------|----------------|---------------------|---------------------|


|--------------|--------------|---------9----9---|---------------------|
|-7------------|-7---7--------|-------7----------|-7-10---10-10-8-7-8--|
|-----9--------|--------------|-----7------7---7-|------7--------------|
|--------------|--------------|------------------|---------------------|
|--------------|--------------|------------------|---------------------|
|--------------|--------------|------------------|---------------------|


|--------------|------------------|--------------|--------|
|-7------------|---------10-8-7-8-|-7------------|--------|
|-----7--------|-------7----------|-----7--------|--------|
|--------------|------------------|--------------|--------|
|--------------|------------------|--------------|--------|
|--------------|------------------|--------------|--------|


|--9----------|------------|------------|--------*|
|-------------|------------|------------|--------*|
|-------------|------------|------------|--------*|
|-------------|------------|------------|--------*|
|-------------|------------|------------|--------*|
|-------------|------------|------------|--------*|

Comments about this tab

mansonstinks - 2004-06-14

Nice job man. No, Excellent job.


catdark - 2005-03-09

Excellent work. Yo soy de Colombia. The song is incredible.


investigate - 2005-10-19

Hi
well done on the tab, personally, i believe that it needs to go down a threat so that it is on the 6th fret to start with but play what you want

In Jesus
Mike


Sasiita - 2007-08-18

I dont know how to read the tab... =( Please, can somebody help me? I wanna learn how to play the intro. Please, I beg u.


Add a comment/correction

Complimentary Christian Ringtones
Dadamobile and CGR have teamed up to bring your favorite Christian artists right to your phone. Sign up today and get 10 complementary ringtones!
Tab Country
Did you know CGR has a sister site w/ country guitar tabs? Well we do! Its called Tab Country. It has a great archive with a lot of country tabs.
Rockin Tabs
Are you looking for a site that has rock guitar tabs? Then Rockintabs.com is the place for you. It is a budding site with many rock guitar tabs. Submit your tab today.
Tab Gallery
Tab Gallery has a compilation of christian, rock, and country tabs all in one place. Come visit us.