Guitar Tabs
song title    band name

Join Us Today!

Don't strum alone...
be a part of the largest online Christian music community. Browse thousands of guitar tabs and chat w/ musicians like yourself.


It's Free!

This tab has been rated a 2.00 out of 5 for accuracy. (6 votes)Sorry, but you must be logged in to rate this tab.
Click here to log-in, or you can click here to register.
(Registration is free)

All songs owned by corresponding publishing company. If you make copies of any song on this website, be sure to report your usage to CCLI.
Submitted by: sippypsycho

There's probably a lot of stuff that I didn't catch in this song, but this is
most of it :) Good luck! I put the chords over top of the tab in parenthesis.

Intro
   (Eb)		(Cmn)		(Bb)		(Ab)		 
E------------------------------------------------4--------------|
A----------------3--------------1-------------------------------|
D--1------------------------------------------------------------|
G----3---3---------3---3----------3---3------------3---3--------|
B------4---4-3-4-----4---4-3-4------4---4-3-4--------4---4-3-4--|
e---------------------------------------------------------------|

(Eb) 	   (Cmn)      (Bb)    (Ab)  
E---------------------------------|
A---------------------------------|
D---------------------------------|
G------------------------------3--|
B-------4---------4----------4----|
e-4-3-1-----4-3-1------4-3-1------|

Verse

Chords for the most part: Eb, Cmn, Bb, Ab

  (Eb) (Ab) (Bb)   (Eb) (Ab) (Bb)
E---------------------------------|
A---------------------------------|
D---------------------------------|
G---------------------------------|
B------------8/4------------------|
e---3---4-1---------3-----4----6--|


Chorus

 (Eb) 	   (Cmn)      	(Bb)    (Ab)  	  

E---------------------------------------|
A---------------------------------------|
D-6---3-1----6---3-1----just chords here|
G---0----------0------------------------|
B---------------------------------------|
e---------------------------------------|

(Eb) 	     (Cmn)    (Ab) (Bb)   (Eb)
--------------------------------------------|
--------------------------------------------|
--6---3-1---6---3-1--just chords here, too--|
----0---------0-----------------------------|
--------------------------------------------|
--------------------------------------------|



The first time it goes back into the verse using the 
last section of the intro. The second time it goes into a bridge type thing.

Bridge
E------------------------------------------------------------------|
A------------------------------------------------------------------|
D------------------------------------------------------------------|
G------------------------------------------------------------------|
B----------------------11-11-11--11-11-11-11-11-11-9-9-9-8-9-8-9-8-|
e-11-10-11---11-13-11--10-11-11--10-11-10-11-10-10-8-8-8-6-8-6-8-6-|

then a few chords: Eb, Cmn, Bb, Ab, Eb, Cmn, Bb, Ab

and back into the chorus. It ends off with the last part of the intro.

Comments about this tab

RcKn'Rll247 - 2004-09-09

Dude you forgot the solo tab


RcKn'Rll247 - 2004-10-28

never mind


dReAmIn4EvEr - 2005-01-30

well its deff not right tab for intro, its played much higher up the board, and your tab line is upside down


9TE3 - 2005-06-21

Anyone know where I can find the tab for "Answer To The Question"?


Add a comment/correction

Complimentary Christian Ringtones
Dadamobile and CGR have teamed up to bring your favorite Christian artists right to your phone. Sign up today and get 10 complementary ringtones!
Tab Country
Did you know CGR has a sister site w/ country guitar tabs? Well we do! Its called Tab Country. It has a great archive with a lot of country tabs.
Rockin Tabs
Are you looking for a site that has rock guitar tabs? Then Rockintabs.com is the place for you. It is a budding site with many rock guitar tabs. Submit your tab today.
Tab Gallery
Tab Gallery has a compilation of christian, rock, and country tabs all in one place. Come visit us.