Guitar Tabs
song title    band name

Join Us Today!

Don't strum alone...
be a part of the largest online Christian music community. Browse thousands of guitar tabs and chat w/ musicians like yourself.


It's Free!

This tab has been rated a 4.00 out of 5 for accuracy. (2 votes)Sorry, but you must be logged in to rate this tab.
Click here to log-in, or you can click here to register.
(Registration is free)

All songs owned by corresponding publishing company. If you make copies of any song on this website, be sure to report your usage to CCLI.
Submitted by: Awanabecop

K2S
After the Rain

E---------------------------------------------------------
B-3------3-----1-------1------0-------0-----3-------3-----
G----0-----0------0-------0------0------0------0------0---
D------2------------2--------------2-------------2--------
A-3------------3--------------3-------------3-------------
E---------------------------------------------------------

E-----------------------------------------------
B-1-----1-----0-----0-----3-----3-----1---------
G---2-----2-----2-----2-----2-----2-------------
D-----2-----------2-----------2----------------- back to top
A-0-----------0-----------0-----------0---0--2-- repeat over and over
E-----------------------------------------------

Outro
E---------------0----
B-------------1------
G-----------0--------
D---------2----------
A-0--2--3------------
E--------------------

In Christ, Josiah 
PS: This Tab is correct
Email me your comments at Awanabecop@aol.com

Comments about this tab

Awanabecop - 2004-08-24

I actually tabbed it out correct but, I guess some people are just envious
they didn't even add a correction because there is nothing wrong with it!
Anyway thanks to the rest of you for rating fair.

In Christ,

Josiah


Add a comment/correction

Complimentary Christian Ringtones
Dadamobile and CGR have teamed up to bring your favorite Christian artists right to your phone. Sign up today and get 10 complementary ringtones!
Tab Country
Did you know CGR has a sister site w/ country guitar tabs? Well we do! Its called Tab Country. It has a great archive with a lot of country tabs.
Rockin Tabs
Are you looking for a site that has rock guitar tabs? Then Rockintabs.com is the place for you. It is a budding site with many rock guitar tabs. Submit your tab today.
Tab Gallery
Tab Gallery has a compilation of christian, rock, and country tabs all in one place. Come visit us.