Guitar Tabs
song title    band name

Join Us Today!

Don't strum alone...
be a part of the largest online Christian music community. Browse thousands of guitar tabs and chat w/ musicians like yourself.


It's Free!

This tab has been rated a 3.50 out of 5 for accuracy. (6 votes)Sorry, but you must be logged in to rate this tab.
Click here to log-in, or you can click here to register.
(Registration is free)

All songs owned by corresponding publishing company. If you make copies of any song on this website, be sure to report your usage to CCLI.
Submitted by: Timberwolf

Band: Relient K
Written by: Matthew Hoopes
Tuning: EADGBE
Song: Those Words Are Not Enough
Album: Antanomy of the Tongue and Cheek
Tabbed by: Nathan N.

                      Intro x2           This is only played the first time.
---------------------------------------|--------------
---------------------------------------|--------------
-----4-66-44-2------6-4-22------4-66-44|-2xxxxxxxxxxxx
2-22-4-66-44-2-2-22-6-4-22-2-22-4-66-44|-2xxxxxxxxxxxx
2-22-2-44-22-0-2-22-4-2-00-2-22-2-44-22|-0xxxxxxxxxxxx
0-00-----------0-00--------0-00--------|--------------

Verse1x2The 2nd time you play this it's all muted except 
-----------------------------------------|----------|
-----------------------------------------|----------|
6xxxxxxxxxxxx---------------2xxxxxxxxxxxx|------4-44| 
6xxxxxxxxxxxx-6xxxxxxxxxxxx-2xxxxxxxxxxxx|-2-22-4-44|<-this
4xxxxxxxxxxxx-6xxxxxxxxxxxx-0xxxxxxxxxxxx|-2-22-2-22|
--------------4xxxxxxxxxxxx--------------|-0-00-----|

 x1 Guitar2 plays this once after Gt1 plays first part once
----------------------------------
--12---12---10--------------------
9----9----9-----------------------
----------------------------------
----------------------------------
----------------------------------

Verse2 x11     Gt2 plays this after the 3rd,6th,and last time
-------------|----------12-------Gt1 plays verse
-------------|--12---12--------------
6-44-6-4-66--|9----9-----------------
6-44-6-4-66--|---------------------
4-22-4-2-44--|---------------------
-------------|--------------

Chorus x2
---------------------
---------------------
--------------2222---
22222222-6666-2222---
22222222-6666-0000---
00000000-4444--------

Intro x1
-----------------------------------------------------
--------------------------------------------------5--
-----4-66-44-2------6-4-22------4-66-44-2---4---4----
2-22-4-66-44-2-2-22-6-4-22-2-22-4-66-44-2-2---2------
2-22-2-44-22-0-2-22-4-2-00-2-22-2-44-22-0------------
0-00-----------0-00--------0-00----------------------

Verse1 Gt1 plays this x2   Gt2 plays this x2 muted  Plays this unmuted after
both times
-------------------------|---------------------------------------|---------
--12---12---10-----------|---------------------------------------|---------
9----9----9---------4-44-|666666666666--------------222222222222-|-----4-44
---------------2-22-4-44-|666666666666-666666666666-222222222222-|2-22-4-44
---------------2-22-2-22-|444444444444-666666666666-000000000000-|2-22-2-22
---------------0-00------|-------------444444444444--------------|0-00-----

Bridge x2                           End with this instead of palm mutes
--------------------------------------------------------|--------
--------------------------------------------------------|--------
--------------2xxxxxxxxxxx---------------4xxxxxxxxxxxx--|44444444
6xxxxxxxxxxxx-2xxxxxxxxxxx-2xxxxxxxxxxxx-4xxxxxxxxxxxx--|44444444<-This
6xxxxxxxxxxxx-0xxxxxxxxxxx-2xxxxxxxxxxxx-2xxxxxxxxxxxx--|22222222
4xxxxxxxxxxxx--------------0xxxxxxxxxxxx----------------|--------

Chorus x4
------------------
------------------
--------------2222
22222222-6666-2222
22222222-6666-0000
00000000-4444-----

Verse2 x8     Gt2 plays after6th,and last time
------------|---------12----
------------|--12---12------
6-44-6-4-66-|9----9---------
6-44-6-4-66-|---------------<-This
4-22-4-2-44-|---------------
------------|---------------

This x1
---------------------------------
---------------------------------
----------------2222-------------
22~-222222-6666-2222-------------
22~-222222-6666-0000-------------
00~-000000-4444------------------

Chorus x8
-------------------------------      Legend
-------------------------------  ~=Let ring
--------------2222-------------  x=Palm mute
22222222-6666-2222-------------
22222222-6666-0000------------- 
00000000-4444------------------

Comments about this tab

jamforchrist123 - 2005-03-08

I Have A Few Corrections. First The Intro Lead Is:

E---------------------------4-2-0-0-
B--0-0-5-4-5-2-2--0-0-0-0-5---------
G-----------------------------------

E---------------
B--0-0-5-4-5-2-2 Play This As Many Times as Needed.
G---------------

Next, Verse 2:

G--6--4--2--4--| E-----12--12--14--12--
D--6--4--2--4--| B--12---12------------
A--4--2--0--2--| G---------------------
E--------------| D---------------------

I Had More, But I Forgot What It Was.


Add a comment/correction

Complimentary Christian Ringtones
Dadamobile and CGR have teamed up to bring your favorite Christian artists right to your phone. Sign up today and get 10 complementary ringtones!
Tab Country
Did you know CGR has a sister site w/ country guitar tabs? Well we do! Its called Tab Country. It has a great archive with a lot of country tabs.
Rockin Tabs
Are you looking for a site that has rock guitar tabs? Then Rockintabs.com is the place for you. It is a budding site with many rock guitar tabs. Submit your tab today.
Tab Gallery
Tab Gallery has a compilation of christian, rock, and country tabs all in one place. Come visit us.