Guitar Tabs
song title    band name

Join Us Today!

Don't strum alone...
be a part of the largest online Christian music community. Browse thousands of guitar tabs and chat w/ musicians like yourself.


It's Free!

This tab has been rated a 2.75 out of 5 for accuracy. (4 votes)Sorry, but you must be logged in to rate this tab.
Click here to log-in, or you can click here to register.
(Registration is free)

All songs owned by corresponding publishing company. If you make copies of any song on this website, be sure to report your usage to CCLI.
Submitted by: Timberwolf

Written by:Matthew Theissen
Song:Pressing On
Band:Relient K
Tuning:EADGBE
Tabbed by:Nathan N.

           Intro x4
------------------------------
------------------------------
6xx---------------------------
6xx-3h4-66-3----8xx-2h3-44-3--
4xx-----66---6--8xx-----44---6
--------44------6xx-----22----

       Verse1 x3               This once
----------------------------|--------------------
----------------------------|--------------------
6xxxxx----------------------|6666----------------
6xxxxx-6xxxxx-8xxxxx-4xxxxx-|6666-6666-8888-4444-
4xxxxx-6xxxxx-8xxxxx-4xxxxx-|4444-6666-8888-4444-
-------4xxxxx-6xxxxx-2xxxxx-|-----4444-6666-2222-

            Verse2
--------------------------------------------------------------
---------------------------------------------------------------
6/8-88-6/8-88-10/11-11-11-6666--------------------6/8-88-6/8-88
6/8-88-6/8-88-10/11-11-11-6666-6666-6/8-88-6/8-88-6/8-88-6/8-88
4/6-66-4/6-66-8/-9--9---9-4444-6666-6/8-88-6/8-88-4/6-66-4/6-66
-------------------------------4444-4/6-66-4/6-66--------------

--------------------------
--------------------------
6666----------------------
6666-6666-4444-6666-x-xxxx
4444-6666-4444-6666-x-xxxx
-----4444-2222-4444-x-xxxx

          Chorus x4               This once
-------------------------------|--------------------------
-------------------------------|--------------------------
6-6-666------------------------|--------------------------
6-6-666-6-6-666-8-8-888-4-4-444|44-44-44-44-6xx6xx6-x-xxxx
4-4-444-6-6-666-8-8-888-4-4-444|44-44-44-44-6xx6xx6-x-xxxx
--------4-4-444-6-6-666-2-2-222|22-22-22-22-4xx4xx4-x-xxxx

 This x3    Verse1           This once
---------------------------|-------------------
---------------------------|-------------------
6xxxxx---------------------|6666---------------
6xxxxx-6xxxxx-8xxxxx-4xxxxx|6666-6666-8888-4444
4xxxxx-6xxxxx-8xxxxx-4xxxxx|4444-6666-8888-4444
-------4xxxxx-6xxxxx-2xxxxx|-----4444-6666-2222

                   Verse2
---------------------------------------------------------------
---------------------------------------------------------------
6/8-88-6/8-88-10/11-11-11-6666--------------------6/8-88-6/8-88
6/8-88-6/8-88-10/11-11-11-6666-6666-6/8-88-6/8-88-6/8-88-6/8-88
4/6-66-4/6-66--8/9--9--9--4444-6666-6/8-88-6/8-88-4/6-66-4/6-66
-------------------------------4444-4/6-66-4/6-66--------------
                 
     Chorus x4 First two slower  This once
-------------------------------|--------------------------
-------------------------------|--------------------------
6-6-666------------------------|--------------------------
6-6-666-6-6-666-8-8-888-4-4-444|44-44-44-44-6xx6xx6-x-xxxx
4-4-444-6-6-666-8-8-888-4-4-444|44-44-44-44-6xx6xx6-x-xxxx
--------4-4-444-6-6-666-2-2-222|22-22-22-22-4xx4xx4-x-xxxx

        Chorus x2                This once
-------------------------------|-------------------
-------------------------------|-------------------
6-6-666------------------------|-------------------
6-6-666-6-6-666-8-8-888-4-4-444|44-44-44-44-6xx6xx6
4-4-444-6-6-666-8-8-888-4-4-444|44-44-44-44-6xx6xx6
--------4-4-444-6-6-666-2-2-222|22-22-22-22-4xx4xx4

Intro x4
-----------------------------
-----------------------------
6xx--------------------------
6xx-3h4-66-3---8xx-2h3-44-3--
4xx-----66---6-8xx-----44---6
--------44-----6xx-----22----
At the end of fourth time playing chorus play this x1
---------
---------
---------
8888-4444
8888-4444
6666-2222

Chorus x4                        This once
-------------------------------|--------------------------
-------------------------------|--------------------------
6-6-666------------------------|--------------------------
6-6-666-6-6-666-8-8-888-4-4-444|44-44-44-44-6xx6xx6-x-xxxx
4-4-444-6-6-666-8-8-888-4-4-444|44-44-44-44-6xx6xx6-x-xxxx
--------4-4-444-6-6-666-2-2-222|22-22-22-22-4xx4xx4-x-xxxx
 Verse3 x2
------------------------------------------   Legend
-------------9-9--------------------------  /=slide
666666666666-----6-66656665666565656------  x=palm mute
-------------------------------------4*-6*  *=let ring
-------------------------------------4*-6*
-------------------------------------2*-4*

I think you should add mine cause I know it's correct!And is highly detailed!
Jesus Loves You!JCLU!


Comments about this tab

Timberwolf - 2004-06-03

Sorry!Verse2 is like this
------------------------------------------------------------------------------
------------------------------------------------------------------------------
6/8-88-6/8-88-10/11-1111-10/11-1111-6666--------------------6/8-88-6/8-88-----
6/8-88-6/8-88-10/11-1111-10/11-1111-6666-6666-6/8-88-6/8-88-6/8-88-6/8-88-----
4/6-66-4/6-66--8/9--9--9--8/9--9--9-4444-6666-6/8-88-6/8-88-4/6-66-4/6-66-----
-----------------------------------------4444-4/6-66-4/6-66-------------------
Nathan N.


Timberwolf - 2004-06-19

The into goes like this
Gt1 intro x4 Gt2 x3 after Gt1 plays theres once
------------------------|--------------------------------
------------------------|--------------------------------
6x----------------------|6-------------------------------
6x-3h4-66-3----8x-2h3-68|6-6-8-4-------------------------
4x-----66---6--8x-----68|4-6-8-4-------------------------
-------44------6x-----46|--4-6-2-------------------------
Nathan N.


Add a comment/correction

Complimentary Christian Ringtones
Dadamobile and CGR have teamed up to bring your favorite Christian artists right to your phone. Sign up today and get 10 complementary ringtones!
Tab Country
Did you know CGR has a sister site w/ country guitar tabs? Well we do! Its called Tab Country. It has a great archive with a lot of country tabs.
Rockin Tabs
Are you looking for a site that has rock guitar tabs? Then Rockintabs.com is the place for you. It is a budding site with many rock guitar tabs. Submit your tab today.
Tab Gallery
Tab Gallery has a compilation of christian, rock, and country tabs all in one place. Come visit us.