Guitar Tabs
song title    band name

Join Us Today!

Don't strum alone...
be a part of the largest online Christian music community. Browse thousands of guitar tabs and chat w/ musicians like yourself.


It's Free!

This tab has been rated a 5.00 out of 5 for accuracy. (1 vote)Sorry, but you must be logged in to rate this tab.
Click here to log-in, or you can click here to register.
(Registration is free)

All songs owned by corresponding publishing company. If you make copies of any song on this website, be sure to report your usage to CCLI.
Submitted by: josh-rock

Artist - Everyday Sunday
Song - Herself (I Want A Girl)
CD - Anthems For The Imperfect
2004 Flicker Records
Tuning - Standard
b = bend
~ = let ring

Contact: josh-rock
         muskie_84@hotmail.com

Intro and 1st half of Verse 1 -
|-3-3-3-3-3-3-3-3--3-3-3b-3-3-3b-----
|-4-4-4-4-4-4-4-4--4-4-4--4-4-4------ X4
|-4-4-4-4-4-4-4-4--2-2-2--1-1-1------
|-2-2-2-2-2-2-2-2--------------------

2nd half of verse 1
|-3-3-3-3-3-3-3-3--4-4-4---3-3-3--        |-6-6-6-6-6-6--
|-4-4-4-4-4-4-4-4--4-4-4---3-3-3-- end on |-6-6-6-6-6-6--
|-4-4-4-4-4-4-4-4--2-2-2---1-1-1--        |-4-4-4-4-4-4--
|-3-3-3-3-3-3-3-3-----------------        |--------------

Chorus - 
|-3-3-3-3-3-3-3-3--4-4-4-4--6-6-6-6-----
|-4-4-4-4-4-4-4-4--4-4-4-4--6-6-6-6----- repeat
|-4-4-4-4-4-4-4-4--2-2-2-2--4-4-4-4-----
|-2-2-2-2-2-2-2-2-----------------------

Verse 2 -
same as second half of verse 1

chorus -

Bridge - 
|------4~--------4~------3---------3------
|-6~---4~---6~---4~------4---------4------
|-6~---2~---6~---2~------4-2-1-2-4-4------
|-4~--------4~-----------2---------2------

repeat Chorus x2

End with - 
|-6-6-6---3~--
|-6-6-6---4~--
|-4-4-4---4~--
|---------2~--


Comments about this tab

joecool88 - 2006-05-07

i'm pretty sure they tune down a half step and i played the intro like this
G/B G/A C it sounded correct to me i might be wrong. try it and see if it works.


RelientKrocks92 - 2008-01-27

I'm assuming the 4 strings are the lowest four?


Add a comment/correction

Complimentary Christian Ringtones
Dadamobile and CGR have teamed up to bring your favorite Christian artists right to your phone. Sign up today and get 10 complementary ringtones!
Tab Country
Did you know CGR has a sister site w/ country guitar tabs? Well we do! Its called Tab Country. It has a great archive with a lot of country tabs.
Rockin Tabs
Are you looking for a site that has rock guitar tabs? Then Rockintabs.com is the place for you. It is a budding site with many rock guitar tabs. Submit your tab today.
Tab Gallery
Tab Gallery has a compilation of christian, rock, and country tabs all in one place. Come visit us.