Guitar Tabs
song title    band name

Join Us Today!

Don't strum alone...
be a part of the largest online Christian music community. Browse thousands of guitar tabs and chat w/ musicians like yourself.


It's Free!

This tab has been rated a 4.83 out of 5 for accuracy. (6 votes)Sorry, but you must be logged in to rate this tab.
Click here to log-in, or you can click here to register.
(Registration is free)

All songs owned by corresponding publishing company. If you make copies of any song on this website, be sure to report your usage to CCLI.
Submitted by: Timberwolf

Band:Kutless
Written by:Kutless
Song:Saved
Album:Kutless
Tabbed by:Nathan N.
Tuning:Drop D
             Intro x8
--9---10---9----10-10---9-----------
7---7----7---7--------7-------------
------------------------------------
------------------------------------
------------------------------------
------------------------------------


         Verse x6
------------------------------------
------------------------------------
------------------------------------
----2-------0--------2-0-----0------
--2---2---2---2----2-----2----------
0-------0--------0---------0--------

            Chorus x2
--------------------------------------------------
--------------------------------------------------
--------------------------------------------------
2xx2--2---5-5-555--0xx0--0--555--77-55------------
2xx2--2---5-5-555--0xx0--0--555--77-55------------
2xx2--2---5-5-555--0xx0--0--555--77-55------------

    Verse x6
-------------------------------
-------------------------------
-------------------------------
----2-------0-------2-0----0---
--2---2---2---2---2-----2------
0-------0-------0--------0-----

    Chorus x4
--------------------------------------------
--------------------------------------------
--------------------------------------------
2xx2--2---5-5-555--0xx0--0--555--77-55------
2xx2--2---5-5-555--0xx0--0--555--77-55------
2xx2--2---5-5-555--0xx0--0--555--77-55------

    Intro x10
--9---10---9----10-10----9----
7---7----7---7--------7-------
------------------------------
------------------------------
------------------------------
------------------------------

      Chorus x4
-------------------------------------------
-------------------------------------------
-------------------------------------------
2xx2--2--5-5-555--0xx0--0--555--77--55-----
2xx2--2--5-5-555--0xx0--0--555--77--55-----
2xx2--2--5-5-555--0xx0--0--555--77--55-----

        Outro x8
---------------------------|-----------------------
-55555555------------------|-----------------------
---------44444444----------|-----------------------
---------------------------|-5--5--5---------------
---------------------------|-5--5--5---------------
---------------------------|-5--5--5---------------

Comments about this tab

josh-rock - 2004-05-21

hey Man! Thanks for tabbing this.... now we have every kutless song! everyone has been asking for this one... thanks again! josh-rock


Timberwolf - 2004-05-25

Guitar2 plays chorus during outro!


delirious_rich - 2004-05-28

Hey, great tabbing, slight mod needed for intro riff.

Intro x8

--9---10---9----12-12-10-9----------
7---7----7---7----------------------
------------------------------------
------------------------------------
------------------------------------
------------------------------------

cool


David wood - 2005-03-17

josh-rock, we do not have all the kutless songs we're missing almost all of the songs off the new album "strong tower" can someone start tabing them!!
thank you


ryan_grooms22 - 2005-05-23

here's a better version of the intro and verse
intro:

e--------10---------12-12------)
b------12--------10------10----)
g----11-------11-----------11--)
d--9--------9------------------)
a------------------------------)
d------------------------------)

verse

e------------------------)
b------------------------)
g------------------------)
d----4----0--0/0--0---0--)
a---2-2--2-0-2/4-4-4\2-0-)
d--2----4----------------)

that's what i got sound almost 100% right
god bless

-ryan_grooms22


ryan_grooms22 - 2005-05-24

correction on verse

e------------------------)
b------------------------)
g------------------------)
d---4----0--0/0--0---0---)
a--2-2--2-2-2/4-4-4\2-0--)
d-2----4-----------------)

sorry about that guy's
god bless
-ryan_grooms22


Add a comment/correction

Complimentary Christian Ringtones
Dadamobile and CGR have teamed up to bring your favorite Christian artists right to your phone. Sign up today and get 10 complementary ringtones!
Tab Country
Did you know CGR has a sister site w/ country guitar tabs? Well we do! Its called Tab Country. It has a great archive with a lot of country tabs.
Rockin Tabs
Are you looking for a site that has rock guitar tabs? Then Rockintabs.com is the place for you. It is a budding site with many rock guitar tabs. Submit your tab today.
Tab Gallery
Tab Gallery has a compilation of christian, rock, and country tabs all in one place. Come visit us.