Guitar Tabs
song title    band name

Join Us Today!

Don't strum alone...
be a part of the largest online Christian music community. Browse thousands of guitar tabs and chat w/ musicians like yourself.


It's Free!

This tab has been rated a 4.82 out of 5 for accuracy. (22 votes)Sorry, but you must be logged in to rate this tab.
Click here to log-in, or you can click here to register.
(Registration is free)

All songs owned by corresponding publishing company. If you make copies of any song on this website, be sure to report your usage to CCLI.
Submitted by: Timberwolf

Band:Kutless
Written by:Kutless
Album:Kutless
Tuning: Drop D

            Intro: x3


-----------------------------------------------------------------
-----------------------------------------------------------------
-------------------------------------12--------------------------
----5-8-5----------8-10-----------10----12--12------8-10---------
--5-------5------8------8------10---------10------8------8-------
5-----------5--8------------10------------------8----------------       

            Verse1 x1

-----------------------------------------------------
-----------------------------------------------------
-----------------------------------------------------
1--3--5---7--5---1-3--10--10--1010--10-1010-10-------
1--3--5----------1-3--10--10--1010--10-1010-10-------
1--3--5----------1-3--10--10--1010--10-1010-10------- 


        Chorus x2

------------------------------------------------
------------------------------------------------
------------------------------------------------
5-555-5--8--88-8-8-8--3-333-3-3-3-3--xx1--------
5-555-5--8--88-8-8-8--3-333-3-3-3-3--xx1--------
5-555-5--8--88-8-8-8--3-333-3-3-3-3--xx1--------   


           Verse2 x3

-----------------------------------
-----------------------------------
------------------12-------10------
5-7-5--8-10-8--10----10--8----8----
5------8-------10--------8---------
5------8-------10--------8---------  

           Verse1 x1

--------------------------------
--------------------------------
--------------------------------
1-3-5--7-5--1-3--10--10--1010-10--1010-10---
1-3-5-------1-3--10--10--1010-10--1010-10---
1-3-5-------1-3--10--10--1010-10--1010-10---    


        Chorus x2

----------------------------------------
----------------------------------------
----------------------------------------
5-555-5--8-88-8-8-8--3-333-3-3-3-3--xx1----
5-555-5--8-88-8-8-8--3-333-3-3-3-3--xx1----
5-555-5--8-88-8-8-8--3-333-3-3-3-3--xx1----    

        Bridge1

---------------------
---------------------
---------------------
5-7-5--8------3-------5-----8------3---
5------8------3-------5-----8------3---
5------8------3-------5-----8------3---    

       Bridge2

-------------------------------------------------
-------------------------------------------------
-------------------------------------------------
-------------------------------------------------
--5-5-3-5-8------3----------5-8-10-8----3----------5-5-3-5-8--3---------5-8-10-8----
0------------------5-3-5-0----------------5-3-5-0---------------5-3-5-0------------


           Bridge3
this part x4  
------------------------------[--------------------------
------------------------------[--------------------------
------------------------------[--------------------------
0-00-000-0-0-0----------------[0--2---3---5--------------
0-00-000-0-0-0--3-------------[0--2---3---5--------------
0-00-000-0-0-0----5-3-5-0-----[0--2---3---5--------------

Guitar2 plays Bridge two while Guitar1 plays Bridge three

     Bridge4 x15
--------------------------------
--------------------------------
--------------------------------
000-3s5-0-5-3-------------------
000-3s5-0-5-3-------------------
000-3s5-0-5-3-------------------

  Chorusx6
----------------------------
----------------------------
----------------------------
5-555-5-8-88-8-8-8--3-333-3-3-3-3--xx1--
5-555-5-8-88-8-8-8--3-333-3-3-3-3--xx1--
5-555-5-8-88-8-8-8--3-333-3-3-3-3--xx1--


I think you should add mine because I have the complete song and I'm pretty sure it's correct!
Jesus Loves You!

Comments about this tab

Timberwolf - 2004-06-28

Sorry! Verse1 goes like this
-----------------------------------------------------------------
-----------------------------------------------------------------
-----------------------------------------------------------------
1-1/3-3-3/5-5-75-1-1/3-3-3/10-10-1010-10-1010-10-----------------
1-1/3-3-3/5-5----1-1/3-3-3/10-10-1010-10-1010-10-----------------
1-1/3-3-3/5-5----1-1/3-3-3/10-10-1010-10-1010-10-----------------
Nathan N.


Timberwolf - 2004-06-28

Sorry!Bridge4 goes like this
------------------------------------------
------------------------------------------
------------------------------------------
000-3/5-0-5/3-----------------------------
000-3/5-0-5/3-----------------------------
000-3/5-0-5/3-----------------------------
Nathan N.


Awanabecop - 2004-08-09

hey dude!
THE BRIDGE GOES LIKE THIS
try it muted!



------------------------------[
------------------------------[
------------------------------[
D-x-xx-xxx-x-x-x----------------[
A-x-xx-xxx-x-x-x--3-------------[
D-x-xx-xx-x-x-x----5-3-5-0-----[



jcsupafreek - 2004-11-06

you rock thats one of kuttles best songs thanks jesus rocks


lankysponge03 - 2005-02-16

This bridge sounds good too

A--5-3-------
D-----3-5-0--


Timberwolf - 2005-03-07

I got a X2003 that has this song I was the one who tabbed so if you want the official tab either PM me or leave a comment with your email address.


LivesInMe - 2005-10-07

This is a great tab but there's one correction in the intro
Shouldn't the last bit be:

-----------------------------------------------------------------
-----------------------------------------------------------------
-------------------------------------12---------------10---------
----5-8-5----------8-10-----------10----12--12------8---10-------
--5-------5------8------8------10---------10------8--------------
5-----------5--8------------10------------------8----------------

Try it!

Rawk on!!


miky-kim070 - 2006-05-09

for the bridge, it's two guitars. the first guitar is the bass and the

|---------------|
|---------------|
|---------------|
|---------------|
|-3-------------|
|---5-3-5-0-----|


miky-kim070 - 2006-05-09

nice job man. i saw several mistakes but you made it easy enough to give us the main idea and just a few notes are off but you made it so good that i can figure them out really easily and that's awesome. other tabs that ive seen are way off but yours was close enough that i could get the whole song down. i think that ill redo this tab that you did and edit it if it's alright with you.


Add a comment/correction

Complimentary Christian Ringtones
Dadamobile and CGR have teamed up to bring your favorite Christian artists right to your phone. Sign up today and get 10 complementary ringtones!
Tab Country
Did you know CGR has a sister site w/ country guitar tabs? Well we do! Its called Tab Country. It has a great archive with a lot of country tabs.
Rockin Tabs
Are you looking for a site that has rock guitar tabs? Then Rockintabs.com is the place for you. It is a budding site with many rock guitar tabs. Submit your tab today.
Tab Gallery
Tab Gallery has a compilation of christian, rock, and country tabs all in one place. Come visit us.